ISO-10303-21;
HEADER;
FILE_DESCRIPTION (( 'STEP AP203' ),
    '1' );
FILE_NAME ('12614-E0W.STEP',
    '2011-06-28T13:57:01',
    ( 'Admin' ),
    ( 'Thorlabs, Inc.' ),
    'SwSTEP 2.0',
    'SolidWorks 2011',
    '' );
FILE_SCHEMA (( 'CONFIG_CONTROL_DESIGN' ));
ENDSEC;

DATA;
#1 = VERTEX_POINT ( 'NONE', #284 ) ;
#2 = CLOSED_SHELL ( 'NONE', ( #349, #353, #350, #351, #352, #380, #379, #378, #345, #347 ) ) ;
#3 = VERTEX_POINT ( 'NONE', #314 ) ;
#4 = VERTEX_POINT ( 'NONE', #250 ) ;
#5 = VERTEX_POINT ( 'NONE', #246 ) ;
#6 = EDGE_LOOP ( 'NONE', ( #96, #86, #87, #84, #88, #89, #90, #91 ) ) ;
#7 = EDGE_LOOP ( 'NONE', ( #127, #131, #128, #97 ) ) ;
#8 = EDGE_LOOP ( 'NONE', ( #118, #125, #124, #123 ) ) ;
#9 = EDGE_LOOP ( 'NONE', ( #113, #114, #116, #77 ) ) ;
#10 = EDGE_LOOP ( 'NONE', ( #120, #109, #115, #121 ) ) ;
#11 = EDGE_LOOP ( 'NONE', ( #111, #119, #122, #117 ) ) ;
#12 = EDGE_LOOP ( 'NONE', ( #93, #129, #126, #130 ) ) ;
#13 = EDGE_LOOP ( 'NONE', ( #85, #78, #83, #75 ) ) ;
#14 = DATE_AND_TIME ( #23, #383 ) ;
#15 = APPROVAL_DATE_TIME ( #39, #170 ) ;
#16 = PERSON_AND_ORGANIZATION ( #137, #56 ) ;
#17 = APPROVAL_PERSON_ORGANIZATION ( #16, #171, #281 ) ;
#18 = COORDINATED_UNIVERSAL_TIME_OFFSET ( 5, 0, .BEHIND. ) ;
#19 = CALENDAR_DATE ( 2011, 28, 6 ) ;
#20 = DATE_AND_TIME ( #19, #384 ) ;
#21 = APPROVAL_DATE_TIME ( #20, #171 ) ;
#22 = CALENDAR_DATE ( 2011, 28, 6 ) ;
#23 = CALENDAR_DATE ( 2011, 28, 6 ) ;
#24 = PERSON_AND_ORGANIZATION ( #137, #56 ) ;
#25 = COORDINATED_UNIVERSAL_TIME_OFFSET ( 5, 0, .BEHIND. ) ;
#26 = CALENDAR_DATE ( 2011, 28, 6 ) ;
#27 = DATE_AND_TIME ( #26, #381 ) ;
#28 = PERSON_AND_ORGANIZATION ( #137, #56 ) ;
#29 = APPROVAL_PERSON_ORGANIZATION ( #28, #158, #279 ) ;
#30 = COORDINATED_UNIVERSAL_TIME_OFFSET ( 5, 0, .BEHIND. ) ;
#31 = CALENDAR_DATE ( 2011, 28, 6 ) ;
#32 = DATE_AND_TIME ( #31, #382 ) ;
#33 = APPROVAL_DATE_TIME ( #32, #158 ) ;
#34 = PERSON_AND_ORGANIZATION ( #137, #56 ) ;
#35 = PERSON_AND_ORGANIZATION ( #137, #56 ) ;
#36 = PERSON_AND_ORGANIZATION ( #137, #56 ) ;
#37 = COORDINATED_UNIVERSAL_TIME_OFFSET ( 5, 0, .BEHIND. ) ;
#38 = FACE_OUTER_BOUND ( 'NONE', #7, .T. ) ;
#39 = DATE_AND_TIME ( #22, #348 ) ;
#40 = CYLINDRICAL_SURFACE ( 'NONE', #157, 0.1880000000000000300 ) ;
#41 = COORDINATED_UNIVERSAL_TIME_OFFSET ( 5, 0, .BEHIND. ) ;
#42 = LINE ( 'NONE', #290, #200 ) ;
#43 = LINE ( 'NONE', #293, #192 ) ;
#44 = LINE ( 'NONE', #286, #188 ) ;
#45 = LINE ( 'NONE', #262, #184 ) ;
#46 = LINE ( 'NONE', #252, #179 ) ;
#47 = LINE ( 'NONE', #235, #169 ) ;
#48 = LINE ( 'NONE', #256, #182 ) ;
#49 = LINE ( 'NONE', #297, #165 ) ;
#50 = LINE ( 'NONE', #268, #172 ) ;
#51 = LINE ( 'NONE', #227, #162 ) ;
#52 = LINE ( 'NONE', #212, #160 ) ;
#53 = FACE_OUTER_BOUND ( 'NONE', #13, .T. ) ;
#54 = CYLINDRICAL_SURFACE ( 'NONE', #168, 0.1880000000000000300 ) ;
#55 = FACE_OUTER_BOUND ( 'NONE', #12, .T. ) ;
#56 = ORGANIZATION ( 'UNSPECIFIED', 'UNSPECIFIED', '' ) ;
#57 = SHAPE_DEFINITION_REPRESENTATION ( #138, #344 ) ;
#58 = PERSON_AND_ORGANIZATION ( #137, #56 ) ;
#59 = PERSON_AND_ORGANIZATION ( #137, #56 ) ;
#60 = APPROVAL_PERSON_ORGANIZATION ( #59, #170, #289 ) ;
#61 = LINE ( 'NONE', #258, #176 ) ;
#62 = FACE_OUTER_BOUND ( 'NONE', #6, .T. ) ;
#63 = FACE_OUTER_BOUND ( 'NONE', #134, .T. ) ;
#64 = FACE_OUTER_BOUND ( 'NONE', #8, .T. ) ;
#65 = CYLINDRICAL_SURFACE ( 'NONE', #163, 0.1880000000000000300 ) ;
#66 = FACE_OUTER_BOUND ( 'NONE', #11, .T. ) ;
#67 = CYLINDRICAL_SURFACE ( 'NONE', #203, 0.2495000000000000300 ) ;
#68 = FACE_OUTER_BOUND ( 'NONE', #9, .T. ) ;
#69 = CYLINDRICAL_SURFACE ( 'NONE', #145, 0.2495000000000000300 ) ;
#70 = FACE_OUTER_BOUND ( 'NONE', #133, .T. ) ;
#71 = CYLINDRICAL_SURFACE ( 'NONE', #156, 0.2495000000000000300 ) ;
#72 = FACE_OUTER_BOUND ( 'NONE', #10, .T. ) ;
#73 = ORIENTED_EDGE ( 'NONE', *, *, #366, .F. ) ;
#74 = ORIENTED_EDGE ( 'NONE', *, *, #372, .F. ) ;
#75 = ORIENTED_EDGE ( 'NONE', *, *, #354, .T. ) ;
#76 = ORIENTED_EDGE ( 'NONE', *, *, #355, .F. ) ;
#77 = ORIENTED_EDGE ( 'NONE', *, *, #376, .T. ) ;
#78 = ORIENTED_EDGE ( 'NONE', *, *, #377, .F. ) ;
#79 = ORIENTED_EDGE ( 'NONE', *, *, #376, .F. ) ;
#80 = ORIENTED_EDGE ( 'NONE', *, *, #377, .T. ) ;
#81 = ORIENTED_EDGE ( 'NONE', *, *, #375, .F. ) ;
#82 = ORIENTED_EDGE ( 'NONE', *, *, #369, .T. ) ;
#83 = ORIENTED_EDGE ( 'NONE', *, *, #371, .F. ) ;
#84 = ORIENTED_EDGE ( 'NONE', *, *, #367, .T. ) ;
#85 = ORIENTED_EDGE ( 'NONE', *, *, #370, .T. ) ;
#86 = ORIENTED_EDGE ( 'NONE', *, *, #374, .T. ) ;
#87 = ORIENTED_EDGE ( 'NONE', *, *, #357, .T. ) ;
#88 = ORIENTED_EDGE ( 'NONE', *, *, #368, .T. ) ;
#89 = ORIENTED_EDGE ( 'NONE', *, *, #358, .T. ) ;
#90 = ORIENTED_EDGE ( 'NONE', *, *, #362, .T. ) ;
#91 = ORIENTED_EDGE ( 'NONE', *, *, #371, .T. ) ;
#92 = ORIENTED_EDGE ( 'NONE', *, *, #363, .F. ) ;
#93 = ORIENTED_EDGE ( 'NONE', *, *, #366, .T. ) ;
#94 = ORIENTED_EDGE ( 'NONE', *, *, #373, .F. ) ;
#95 = ORIENTED_EDGE ( 'NONE', *, *, #360, .F. ) ;
#96 = ORIENTED_EDGE ( 'NONE', *, *, #375, .T. ) ;
#97 = ORIENTED_EDGE ( 'NONE', *, *, #373, .T. ) ;
#98 = ORIENTED_EDGE ( 'NONE', *, *, #369, .F. ) ;
#99 = VERTEX_POINT ( 'NONE', #251 ) ;
#100 = VERTEX_POINT ( 'NONE', #257 ) ;
#101 = VERTEX_POINT ( 'NONE', #260 ) ;
#102 = VERTEX_POINT ( 'NONE', #259 ) ;
#103 = VERTEX_POINT ( 'NONE', #233 ) ;
#104 = VERTEX_POINT ( 'NONE', #234 ) ;
#105 = VERTEX_POINT ( 'NONE', #242 ) ;
#106 = VERTEX_POINT ( 'NONE', #240 ) ;
#107 = VERTEX_POINT ( 'NONE', #294 ) ;
#108 = VERTEX_POINT ( 'NONE', #239 ) ;
#109 = ORIENTED_EDGE ( 'NONE', *, *, #364, .T. ) ;
#110 = VERTEX_POINT ( 'NONE', #311 ) ;
#111 = ORIENTED_EDGE ( 'NONE', *, *, #357, .F. ) ;
#112 = VERTEX_POINT ( 'NONE', #301 ) ;
#113 = ORIENTED_EDGE ( 'NONE', *, *, #356, .F. ) ;
#114 = ORIENTED_EDGE ( 'NONE', *, *, #374, .F. ) ;
#115 = ORIENTED_EDGE ( 'NONE', *, *, #355, .T. ) ;
#116 = ORIENTED_EDGE ( 'NONE', *, *, #372, .T. ) ;
#117 = ORIENTED_EDGE ( 'NONE', *, *, #359, .F. ) ;
#118 = ORIENTED_EDGE ( 'NONE', *, *, #358, .F. ) ;
#119 = ORIENTED_EDGE ( 'NONE', *, *, #356, .T. ) ;
#120 = ORIENTED_EDGE ( 'NONE', *, *, #362, .F. ) ;
#121 = ORIENTED_EDGE ( 'NONE', *, *, #354, .F. ) ;
#122 = ORIENTED_EDGE ( 'NONE', *, *, #363, .T. ) ;
#123 = ORIENTED_EDGE ( 'NONE', *, *, #364, .F. ) ;
#124 = ORIENTED_EDGE ( 'NONE', *, *, #360, .T. ) ;
#125 = ORIENTED_EDGE ( 'NONE', *, *, #361, .T. ) ;
#126 = ORIENTED_EDGE ( 'NONE', *, *, #367, .F. ) ;
#127 = ORIENTED_EDGE ( 'NONE', *, *, #361, .F. ) ;
#128 = ORIENTED_EDGE ( 'NONE', *, *, #365, .T. ) ;
#129 = ORIENTED_EDGE ( 'NONE', *, *, #365, .F. ) ;
#130 = ORIENTED_EDGE ( 'NONE', *, *, #359, .T. ) ;
#131 = ORIENTED_EDGE ( 'NONE', *, *, #368, .F. ) ;
#132 = ORIENTED_EDGE ( 'NONE', *, *, #370, .F. ) ;
#133 = EDGE_LOOP ( 'NONE', ( #74, #81, #80, #82 ) ) ;
#134 = EDGE_LOOP ( 'NONE', ( #98, #132, #76, #95, #94, #73, #92, #79 ) ) ;
#135 = UNCERTAINTY_MEASURE_WITH_UNIT (LENGTH_MEASURE( 1.000000000000000100E-005 ), #211, 'distance_accuracy_value', 'NONE');
#136 = PRODUCT ( '12614-E0W', '12614-E0W', '', ( #306 ) ) ;
#137 = PERSON ( 'UNSPECIFIED', 'UNSPECIFIED', 'UNSPECIFIED', ('UNSPECIFIED'), ('UNSPECIFIED'), ('UNSPECIFIED') ) ;
#138 = PRODUCT_DEFINITION_SHAPE ( 'NONE', 'NONE',  #150 ) ;
#139 = CC_DESIGN_PERSON_AND_ORGANIZATION_ASSIGNMENT ( #36, #280, ( #142 ) ) ;
#140 = AXIS2_PLACEMENT_3D ( 'NONE', #228, #216, #332 ) ;
#141 = AXIS2_PLACEMENT_3D ( 'NONE', #210, #337, #206 ) ;
#142 = SECURITY_CLASSIFICATION ( '', '', #272 ) ;
#143 = AXIS2_PLACEMENT_3D ( 'NONE', #218, #222, #267 ) ;
#144 = CC_DESIGN_PERSON_AND_ORGANIZATION_ASSIGNMENT ( #34, #273, ( #154 ) ) ;
#145 = AXIS2_PLACEMENT_3D ( 'NONE', #288, #340, #263 ) ;
#146 = AXIS2_PLACEMENT_3D ( 'NONE', #310, #296, #278 ) ;
#147 = LENGTH_MEASURE_WITH_UNIT ( LENGTH_MEASURE( 0.02539999999999999900 ), #305 );
#148 = CIRCLE ( 'NONE', #193, 0.1880000000000000300 ) ;
#149 = CIRCLE ( 'NONE', #141, 0.1880000000000000300 ) ;
#150 = PRODUCT_DEFINITION ( 'UNKNOWN', '', #154, #342 ) ;
#151 = CIRCLE ( 'NONE', #178, 0.2495000000000000300 ) ;
#152 = CC_DESIGN_PERSON_AND_ORGANIZATION_ASSIGNMENT ( #35, #230, ( #154 ) ) ;
#153 = CC_DESIGN_DATE_AND_TIME_ASSIGNMENT ( #14, #274, ( #142 ) ) ;
#154 = PRODUCT_DEFINITION_FORMATION_WITH_SPECIFIED_SOURCE ( 'ANY', '', #136, .NOT_KNOWN. ) ;
#155 = AXIS2_PLACEMENT_3D ( 'NONE', #271, #329, #207 ) ;
#156 = AXIS2_PLACEMENT_3D ( 'NONE', #243, #214, #291 ) ;
#157 = AXIS2_PLACEMENT_3D ( 'NONE', #336, #298, #287 ) ;
#158 = APPROVAL ( #275, 'UNSPECIFIED' ) ;
#159 = AXIS2_PLACEMENT_3D ( 'NONE', #219, #339, #224 ) ;
#160 = VECTOR ( 'NONE', #335, 39.37007874015748100 ) ;
#161 = CC_DESIGN_APPROVAL ( #158, ( #154 ) ) ;
#162 = VECTOR ( 'NONE', #331, 39.37007874015748100 ) ;
#163 = AXIS2_PLACEMENT_3D ( 'NONE', #245, #309, #261 ) ;
#164 = AXIS2_PLACEMENT_3D ( 'NONE', #276, #226, #231 ) ;
#165 = VECTOR ( 'NONE', #321, 39.37007874015748100 ) ;
#166 = CIRCLE ( 'NONE', #159, 0.2495000000000000300 ) ;
#167 = CC_DESIGN_APPROVAL ( #171, ( #142 ) ) ;
#168 = AXIS2_PLACEMENT_3D ( 'NONE', #283, #295, #221 ) ;
#169 = VECTOR ( 'NONE', #320, 39.37007874015748100 ) ;
#170 = APPROVAL ( #328, 'UNSPECIFIED' ) ;
#171 = APPROVAL ( #229, 'UNSPECIFIED' ) ;
#172 = VECTOR ( 'NONE', #265, 39.37007874015748100 ) ;
#173 = AXIS2_PLACEMENT_3D ( 'NONE', #313, #249, #312 ) ;
#174 = CC_DESIGN_PERSON_AND_ORGANIZATION_ASSIGNMENT ( #58, #338, ( #136 ) ) ;
#175 = CC_DESIGN_DATE_AND_TIME_ASSIGNMENT ( #27, #323, ( #150 ) ) ;
#176 = VECTOR ( 'NONE', #215, 39.37007874015748100 ) ;
#177 = AXIS2_PLACEMENT_3D ( 'NONE', #316, #327, #270 ) ;
#178 = AXIS2_PLACEMENT_3D ( 'NONE', #266, #292, #304 ) ;
#179 = VECTOR ( 'NONE', #253, 39.37007874015748100 ) ;
#180 = AXIS2_PLACEMENT_3D ( 'NONE', #330, #325, #209 ) ;
#181 = CIRCLE ( 'NONE', #143, 0.2495000000000000300 ) ;
#182 = VECTOR ( 'NONE', #308, 39.37007874015748100 ) ;
#183 = CC_DESIGN_PERSON_AND_ORGANIZATION_ASSIGNMENT ( #24, #322, ( #150 ) ) ;
#184 = VECTOR ( 'NONE', #254, 39.37007874015748100 ) ;
#185 = CIRCLE ( 'NONE', #191, 0.1880000000000000300 ) ;
#186 = CIRCLE ( 'NONE', #187, 0.1880000000000000300 ) ;
#187 = AXIS2_PLACEMENT_3D ( 'NONE', #302, #277, #315 ) ;
#188 = VECTOR ( 'NONE', #303, 39.37007874015748100 ) ;
#189 = CIRCLE ( 'NONE', #177, 0.2495000000000000300 ) ;
#190 = AXIS2_PLACEMENT_3D ( 'NONE', #319, #208, #237 ) ;
#191 = AXIS2_PLACEMENT_3D ( 'NONE', #213, #307, #238 ) ;
#192 = VECTOR ( 'NONE', #236, 39.37007874015748100 ) ;
#193 = AXIS2_PLACEMENT_3D ( 'NONE', #324, #285, #299 ) ;
#194 = CIRCLE ( 'NONE', #190, 0.2495000000000000300 ) ;
#195 = CIRCLE ( 'NONE', #180, 0.1880000000000000300 ) ;
#196 = CIRCLE ( 'NONE', #199, 0.1880000000000000300 ) ;
#197 = AXIS2_PLACEMENT_3D ( 'NONE', #247, #220, #248 ) ;
#198 = CIRCLE ( 'NONE', #197, 0.2495000000000000300 ) ;
#199 = AXIS2_PLACEMENT_3D ( 'NONE', #223, #217, #300 ) ;
#200 = VECTOR ( 'NONE', #244, 39.37007874015748100 ) ;
#201 = CC_DESIGN_APPROVAL ( #170, ( #150 ) ) ;
#202 = PRODUCT_RELATED_PRODUCT_CATEGORY ( 'detail', '', ( #136 ) ) ;
#203 = AXIS2_PLACEMENT_3D ( 'NONE', #255, #317, #318 ) ;
#204 = CC_DESIGN_SECURITY_CLASSIFICATION ( #142, ( #154 ) ) ;
#205 = APPLICATION_CONTEXT ( 'configuration controlled 3d designs of mechanical parts and assemblies' ) ;
#206 = DIRECTION ( 'NONE',  ( 0.0000000000000000000, 0.0000000000000000000, 1.000000000000000000 ) ) ;
#207 = DIRECTION ( 'NONE',  ( -1.000000000000000000, 0.0000000000000000000, 6.894262409932704700E-017 ) ) ;
#208 = DIRECTION ( 'NONE',  ( 0.0000000000000000000, 1.000000000000000000, 0.0000000000000000000 ) ) ;
#209 = DIRECTION ( 'NONE',  ( 0.0000000000000000000, 0.0000000000000000000, 1.000000000000000000 ) ) ;
#210 = CARTESIAN_POINT ( 'NONE',  ( -0.5747279855639101400, -1.025724855014959100, 0.8306234413247349800 ) ) ;
#211 =( CONVERSION_BASED_UNIT ( 'INCH', #147 ) LENGTH_UNIT ( ) NAMED_UNIT ( #341 ) );
#212 = CARTESIAN_POINT ( 'NONE',  ( -0.3264836502811084300, -0.5257248550149591400, 0.8056234413247350700 ) ) ;
#213 = CARTESIAN_POINT ( 'NONE',  ( -0.5747279855639101400, -1.025724855014959100, 0.8306234413247349800 ) ) ;
#214 = DIRECTION ( 'NONE',  ( -0.0000000000000000000, -1.000000000000000000, -0.0000000000000000000 ) ) ;
#215 = DIRECTION ( 'NONE',  ( -0.0000000000000000000, -1.000000000000000000, -0.0000000000000000000 ) ) ;
#216 = DIRECTION ( 'NONE',  ( 0.0000000000000000000, 0.0000000000000000000, 1.000000000000000000 ) ) ;
#217 = DIRECTION ( 'NONE',  ( -0.0000000000000000000, -1.000000000000000000, -0.0000000000000000000 ) ) ;
#218 = CARTESIAN_POINT ( 'NONE',  ( -0.5747279855639101400, -0.5257248550149591400, 0.8306234413247349800 ) ) ;
#219 = CARTESIAN_POINT ( 'NONE',  ( -0.5747279855639101400, -1.025724855014959100, 0.8306234413247349800 ) ) ;
#220 = DIRECTION ( 'NONE',  ( 0.0000000000000000000, 1.000000000000000000, 0.0000000000000000000 ) ) ;
#221 = DIRECTION ( 'NONE',  ( 0.0000000000000000000, 0.0000000000000000000, -1.000000000000000000 ) ) ;
#222 = DIRECTION ( 'NONE',  ( 0.0000000000000000000, 1.000000000000000000, 0.0000000000000000000 ) ) ;
#223 = CARTESIAN_POINT ( 'NONE',  ( -0.5747279855639101400, -0.5257248550149591400, 0.8306234413247349800 ) ) ;
#224 = DIRECTION ( 'NONE',  ( 0.0000000000000000000, 0.0000000000000000000, 1.000000000000000000 ) ) ;
#225 = APPLICATION_PROTOCOL_DEFINITION ( 'international standard', 'config_control_design', 1994, #205 ) ;
#226 = DIRECTION ( 'NONE',  ( -1.378852481986540200E-016, 0.0000000000000000000, 1.000000000000000000 ) ) ;
#227 = CARTESIAN_POINT ( 'NONE',  ( -0.5747279855639101400, -0.5257248550149591400, 0.5811234413247350300 ) ) ;
#228 = CARTESIAN_POINT ( 'NONE',  ( 0.0000000000000000000, 0.0000000000000000000, 0.0000000000000000000 ) ) ;
#229 = APPROVAL_STATUS ( 'not_yet_approved' ) ;
#230 = PERSON_AND_ORGANIZATION_ROLE ( 'design_supplier' ) ;
#231 = DIRECTION ( 'NONE',  ( 1.000000000000000000, 0.0000000000000000000, 1.378852481986540200E-016 ) ) ;
#232 = PLANE ( 'NONE',  #164 ) ;
#233 = CARTESIAN_POINT ( 'NONE',  ( -0.3264836502811084300, -1.025724855014959100, 0.8056234413247350700 ) ) ;
#234 = CARTESIAN_POINT ( 'NONE',  ( -0.5747279855639101400, -1.025724855014959100, 0.5811234413247350300 ) ) ;
#235 = CARTESIAN_POINT ( 'NONE',  ( -0.3883976337690401300, -1.025724855014959100, 0.8556234413247350000 ) ) ;
#236 = DIRECTION ( 'NONE',  ( -0.0000000000000000000, -1.000000000000000000, -0.0000000000000000000 ) ) ;
#237 = DIRECTION ( 'NONE',  ( 0.0000000000000000000, 0.0000000000000000000, 1.000000000000000000 ) ) ;
#238 = DIRECTION ( 'NONE',  ( 0.0000000000000000000, 0.0000000000000000000, 1.000000000000000000 ) ) ;
#239 = CARTESIAN_POINT ( 'NONE',  ( -0.5747279855639101400, -0.5257248550149591400, 1.018623441324735000 ) ) ;
#240 = CARTESIAN_POINT ( 'NONE',  ( -0.5747279855639101400, -0.5257248550149591400, 0.5811234413247350300 ) ) ;
#241 = PLANE ( 'NONE',  #173 ) ;
#242 = CARTESIAN_POINT ( 'NONE',  ( -0.3264836502811084300, -0.5257248550149591400, 0.8556234413247350000 ) ) ;
#243 = CARTESIAN_POINT ( 'NONE',  ( -0.5747279855639101400, -0.5257248550149591400, 0.8306234413247349800 ) ) ;
#244 = DIRECTION ( 'NONE',  ( -0.0000000000000000000, -1.000000000000000000, -0.0000000000000000000 ) ) ;
#245 = CARTESIAN_POINT ( 'NONE',  ( -0.5747279855639101400, -0.5257248550149591400, 0.8306234413247349800 ) ) ;
#246 = CARTESIAN_POINT ( 'NONE',  ( -0.3883976337690401300, -0.5257248550149591400, 0.8556234413247350000 ) ) ;
#247 = CARTESIAN_POINT ( 'NONE',  ( -0.5747279855639101400, -0.5257248550149591400, 0.8306234413247349800 ) ) ;
#248 = DIRECTION ( 'NONE',  ( 0.0000000000000000000, 0.0000000000000000000, 1.000000000000000000 ) ) ;
#249 = DIRECTION ( 'NONE',  ( 0.0000000000000000000, 1.000000000000000000, 0.0000000000000000000 ) ) ;
#250 = CARTESIAN_POINT ( 'NONE',  ( -0.5747279855639101400, -1.025724855014959100, 1.018623441324735000 ) ) ;
#251 = CARTESIAN_POINT ( 'NONE',  ( -0.3883976337690401300, -1.025724855014959100, 0.8556234413247350000 ) ) ;
#252 = CARTESIAN_POINT ( 'NONE',  ( -0.3883976337690401300, -0.5257248550149591400, 0.8556234413247350000 ) ) ;
#253 = DIRECTION ( 'NONE',  ( -0.0000000000000000000, -1.000000000000000000, -0.0000000000000000000 ) ) ;
#254 = DIRECTION ( 'NONE',  ( -0.0000000000000000000, -1.000000000000000000, -0.0000000000000000000 ) ) ;
#255 = CARTESIAN_POINT ( 'NONE',  ( -0.5747279855639101400, -0.5257248550149591400, 0.8306234413247349800 ) ) ;
#256 = CARTESIAN_POINT ( 'NONE',  ( -0.3883976337690401300, -0.5257248550149591400, 0.8556234413247350000 ) ) ;
#257 = CARTESIAN_POINT ( 'NONE',  ( -0.3883976337690400700, -0.5257248550149591400, 0.8056234413247350700 ) ) ;
#258 = CARTESIAN_POINT ( 'NONE',  ( -0.3883976337690400700, -0.5257248550149591400, 0.8056234413247350700 ) ) ;
#259 = CARTESIAN_POINT ( 'NONE',  ( -0.3264836502811084300, -1.025724855014959100, 0.8556234413247350000 ) ) ;
#260 = CARTESIAN_POINT ( 'NONE',  ( -0.3883976337690400700, -1.025724855014959100, 0.8056234413247350700 ) ) ;
#261 = DIRECTION ( 'NONE',  ( 0.0000000000000000000, 0.0000000000000000000, -1.000000000000000000 ) ) ;
#262 = CARTESIAN_POINT ( 'NONE',  ( -0.5747279855639101400, -0.5257248550149591400, 0.6426234413247350300 ) ) ;
#263 = DIRECTION ( 'NONE',  ( 0.0000000000000000000, 0.0000000000000000000, -1.000000000000000000 ) ) ;
#264 = APPLICATION_PROTOCOL_DEFINITION ( 'international standard', 'config_control_design', 1994, #269 ) ;
#265 = DIRECTION ( 'NONE',  ( 1.000000000000000000, -0.0000000000000000000, -6.894262409932704700E-017 ) ) ;
#266 = CARTESIAN_POINT ( 'NONE',  ( -0.5747279855639101400, -0.5257248550149591400, 0.8306234413247349800 ) ) ;
#267 = DIRECTION ( 'NONE',  ( 0.0000000000000000000, 0.0000000000000000000, 1.000000000000000000 ) ) ;
#268 = CARTESIAN_POINT ( 'NONE',  ( -0.3264836502811084300, -0.5257248550149591400, 0.8056234413247350700 ) ) ;
#269 = APPLICATION_CONTEXT ( 'configuration controlled 3d designs of mechanical parts and assemblies' ) ;
#270 = DIRECTION ( 'NONE',  ( 0.0000000000000000000, 0.0000000000000000000, 1.000000000000000000 ) ) ;
#271 = CARTESIAN_POINT ( 'NONE',  ( -0.3264836502811084300, -0.5257248550149591400, 0.8056234413247350700 ) ) ;
#272 = SECURITY_CLASSIFICATION_LEVEL ( 'unclassified' ) ;
#273 = PERSON_AND_ORGANIZATION_ROLE ( 'creator' ) ;
#274 = DATE_TIME_ROLE ( 'classification_date' ) ;
#275 = APPROVAL_STATUS ( 'not_yet_approved' ) ;
#276 = CARTESIAN_POINT ( 'NONE',  ( -0.3883976337690401300, -0.5257248550149591400, 0.8556234413247350000 ) ) ;
#277 = DIRECTION ( 'NONE',  ( -0.0000000000000000000, -1.000000000000000000, -0.0000000000000000000 ) ) ;
#278 = DIRECTION ( 'NONE',  ( 0.0000000000000000000, -0.0000000000000000000, 1.000000000000000000 ) ) ;
#279 = APPROVAL_ROLE ( '' ) ;
#280 = PERSON_AND_ORGANIZATION_ROLE ( 'classification_officer' ) ;
#281 = APPROVAL_ROLE ( '' ) ;
#282 = PLANE ( 'NONE',  #155 ) ;
#283 = CARTESIAN_POINT ( 'NONE',  ( -0.5747279855639101400, -0.5257248550149591400, 0.8306234413247349800 ) ) ;
#284 = CARTESIAN_POINT ( 'NONE',  ( -0.5747279855639101400, -0.5257248550149591400, 1.080123441324735100 ) ) ;
#285 = DIRECTION ( 'NONE',  ( -0.0000000000000000000, -1.000000000000000000, -0.0000000000000000000 ) ) ;
#286 = CARTESIAN_POINT ( 'NONE',  ( -0.5747279855639101400, -0.5257248550149591400, 1.018623441324735000 ) ) ;
#287 = DIRECTION ( 'NONE',  ( 0.0000000000000000000, 0.0000000000000000000, -1.000000000000000000 ) ) ;
#288 = CARTESIAN_POINT ( 'NONE',  ( -0.5747279855639101400, -0.5257248550149591400, 0.8306234413247349800 ) ) ;
#289 = APPROVAL_ROLE ( '' ) ;
#290 = CARTESIAN_POINT ( 'NONE',  ( -0.5747279855639101400, -0.5257248550149591400, 1.080123441324735100 ) ) ;
#291 = DIRECTION ( 'NONE',  ( 0.0000000000000000000, 0.0000000000000000000, -1.000000000000000000 ) ) ;
#292 = DIRECTION ( 'NONE',  ( 0.0000000000000000000, 1.000000000000000000, 0.0000000000000000000 ) ) ;
#293 = CARTESIAN_POINT ( 'NONE',  ( -0.3264836502811084300, -0.5257248550149591400, 0.8556234413247350000 ) ) ;
#294 = CARTESIAN_POINT ( 'NONE',  ( -0.5747279855639101400, -1.025724855014959100, 1.080123441324735100 ) ) ;
#295 = DIRECTION ( 'NONE',  ( -0.0000000000000000000, -1.000000000000000000, -0.0000000000000000000 ) ) ;
#296 = DIRECTION ( 'NONE',  ( 0.0000000000000000000, 1.000000000000000000, 0.0000000000000000000 ) ) ;
#297 = CARTESIAN_POINT ( 'NONE',  ( -0.3264836502811084300, -1.025724855014959100, 0.8056234413247350700 ) ) ;
#298 = DIRECTION ( 'NONE',  ( -0.0000000000000000000, -1.000000000000000000, -0.0000000000000000000 ) ) ;
#299 = DIRECTION ( 'NONE',  ( 0.0000000000000000000, 0.0000000000000000000, 1.000000000000000000 ) ) ;
#300 = DIRECTION ( 'NONE',  ( 0.0000000000000000000, 0.0000000000000000000, 1.000000000000000000 ) ) ;
#301 = CARTESIAN_POINT ( 'NONE',  ( -0.5747279855639101400, -1.025724855014959100, 0.6426234413247350300 ) ) ;
#302 = CARTESIAN_POINT ( 'NONE',  ( -0.5747279855639101400, -0.5257248550149591400, 0.8306234413247349800 ) ) ;
#303 = DIRECTION ( 'NONE',  ( -0.0000000000000000000, -1.000000000000000000, -0.0000000000000000000 ) ) ;
#304 = DIRECTION ( 'NONE',  ( 0.0000000000000000000, 0.0000000000000000000, 1.000000000000000000 ) ) ;
#305 =( LENGTH_UNIT ( ) NAMED_UNIT ( * ) SI_UNIT ( $, .METRE. ) );
#306 = MECHANICAL_CONTEXT ( 'NONE', #205, 'mechanical' ) ;
#307 = DIRECTION ( 'NONE',  ( -0.0000000000000000000, -1.000000000000000000, -0.0000000000000000000 ) ) ;
#308 = DIRECTION ( 'NONE',  ( -1.000000000000000000, -0.0000000000000000000, -1.378852481986540200E-016 ) ) ;
#309 = DIRECTION ( 'NONE',  ( -0.0000000000000000000, -1.000000000000000000, -0.0000000000000000000 ) ) ;
#310 = CARTESIAN_POINT ( 'NONE',  ( -0.5747279855639101400, -1.025724855014959100, 0.8306234413247349800 ) ) ;
#311 = CARTESIAN_POINT ( 'NONE',  ( -0.3264836502811084300, -0.5257248550149591400, 0.8056234413247350700 ) ) ;
#312 = DIRECTION ( 'NONE',  ( 0.0000000000000000000, -0.0000000000000000000, 1.000000000000000000 ) ) ;
#313 = CARTESIAN_POINT ( 'NONE',  ( -0.5747279855639101400, -0.5257248550149591400, 0.8306234413247349800 ) ) ;
#314 = CARTESIAN_POINT ( 'NONE',  ( -0.5747279855639101400, -0.5257248550149591400, 0.6426234413247350300 ) ) ;
#315 = DIRECTION ( 'NONE',  ( 0.0000000000000000000, 0.0000000000000000000, 1.000000000000000000 ) ) ;
#316 = CARTESIAN_POINT ( 'NONE',  ( -0.5747279855639101400, -1.025724855014959100, 0.8306234413247349800 ) ) ;
#317 = DIRECTION ( 'NONE',  ( -0.0000000000000000000, -1.000000000000000000, -0.0000000000000000000 ) ) ;
#318 = DIRECTION ( 'NONE',  ( 0.0000000000000000000, 0.0000000000000000000, -1.000000000000000000 ) ) ;
#319 = CARTESIAN_POINT ( 'NONE',  ( -0.5747279855639101400, -1.025724855014959100, 0.8306234413247349800 ) ) ;
#320 = DIRECTION ( 'NONE',  ( -1.000000000000000000, -0.0000000000000000000, -1.378852481986540200E-016 ) ) ;
#321 = DIRECTION ( 'NONE',  ( 1.000000000000000000, -0.0000000000000000000, -6.894262409932704700E-017 ) ) ;
#322 = PERSON_AND_ORGANIZATION_ROLE ( 'creator' ) ;
#323 = DATE_TIME_ROLE ( 'creation_date' ) ;
#324 = CARTESIAN_POINT ( 'NONE',  ( -0.5747279855639101400, -1.025724855014959100, 0.8306234413247349800 ) ) ;
#325 = DIRECTION ( 'NONE',  ( -0.0000000000000000000, -1.000000000000000000, -0.0000000000000000000 ) ) ;
#326 = PLANE ( 'NONE',  #146 ) ;
#327 = DIRECTION ( 'NONE',  ( 0.0000000000000000000, 1.000000000000000000, 0.0000000000000000000 ) ) ;
#328 = APPROVAL_STATUS ( 'not_yet_approved' ) ;
#329 = DIRECTION ( 'NONE',  ( -6.894262409932704700E-017, 0.0000000000000000000, -1.000000000000000000 ) ) ;
#330 = CARTESIAN_POINT ( 'NONE',  ( -0.5747279855639101400, -0.5257248550149591400, 0.8306234413247349800 ) ) ;
#331 = DIRECTION ( 'NONE',  ( -0.0000000000000000000, -1.000000000000000000, -0.0000000000000000000 ) ) ;
#332 = DIRECTION ( 'NONE',  ( 1.000000000000000000, 0.0000000000000000000, 0.0000000000000000000 ) ) ;
#333 =( NAMED_UNIT ( * ) SI_UNIT ( $, .STERADIAN. ) SOLID_ANGLE_UNIT ( ) );
#334 =( NAMED_UNIT ( * ) PLANE_ANGLE_UNIT ( ) SI_UNIT ( $, .RADIAN. ) );
#335 = DIRECTION ( 'NONE',  ( -0.0000000000000000000, -1.000000000000000000, -0.0000000000000000000 ) ) ;
#336 = CARTESIAN_POINT ( 'NONE',  ( -0.5747279855639101400, -0.5257248550149591400, 0.8306234413247349800 ) ) ;
#337 = DIRECTION ( 'NONE',  ( -0.0000000000000000000, -1.000000000000000000, -0.0000000000000000000 ) ) ;
#338 = PERSON_AND_ORGANIZATION_ROLE ( 'design_owner' ) ;
#339 = DIRECTION ( 'NONE',  ( 0.0000000000000000000, 1.000000000000000000, 0.0000000000000000000 ) ) ;
#340 = DIRECTION ( 'NONE',  ( -0.0000000000000000000, -1.000000000000000000, -0.0000000000000000000 ) ) ;
#341 = DIMENSIONAL_EXPONENTS ( 1.000000000000000000, 0.0000000000000000000, 0.0000000000000000000, 0.0000000000000000000, 0.0000000000000000000, 0.0000000000000000000, 0.0000000000000000000 ) ;
#342 = DESIGN_CONTEXT ( 'detailed design', #269, 'design' ) ;
#343 = MANIFOLD_SOLID_BREP ( '12614-001-1-solid1', #2 ) ;
#344 = ADVANCED_BREP_SHAPE_REPRESENTATION ( '12614-E0W', ( #343, #140 ), #346 ) ;
#345 = ADVANCED_FACE ( 'NONE', ( #62 ), #241, .T. ) ;
#346 =( GEOMETRIC_REPRESENTATION_CONTEXT ( 3 ) GLOBAL_UNCERTAINTY_ASSIGNED_CONTEXT ( ( #135 ) ) GLOBAL_UNIT_ASSIGNED_CONTEXT ( ( #211, #334, #333 ) ) REPRESENTATION_CONTEXT ( 'NONE', 'WORKASPACE' ) );
#347 = ADVANCED_FACE ( 'NONE', ( #63 ), #326, .F. ) ;
#348 = LOCAL_TIME ( 9, 57, 1.000000000000000000, #41 ) ;
#349 = ADVANCED_FACE ( 'NONE', ( #64 ), #65, .F. ) ;
#350 = ADVANCED_FACE ( 'NONE', ( #66 ), #67, .T. ) ;
#351 = ADVANCED_FACE ( 'NONE', ( #68 ), #69, .T. ) ;
#352 = ADVANCED_FACE ( 'NONE', ( #70 ), #71, .T. ) ;
#353 = ADVANCED_FACE ( 'NONE', ( #72 ), #40, .F. ) ;
#354 = EDGE_CURVE ( 'NONE', #100, #101, #61, .T. ) ;
#355 = EDGE_CURVE ( 'NONE', #112, #101, #148, .T. ) ;
#356 = EDGE_CURVE ( 'NONE', #1, #107, #42, .T. ) ;
#357 = EDGE_CURVE ( 'NONE', #1, #105, #198, .T. ) ;
#358 = EDGE_CURVE ( 'NONE', #108, #3, #196, .T. ) ;
#359 = EDGE_CURVE ( 'NONE', #105, #102, #43, .T. ) ;
#360 = EDGE_CURVE ( 'NONE', #4, #112, #185, .T. ) ;
#361 = EDGE_CURVE ( 'NONE', #108, #4, #44, .T. ) ;
#362 = EDGE_CURVE ( 'NONE', #3, #100, #186, .T. ) ;
#363 = EDGE_CURVE ( 'NONE', #107, #102, #194, .T. ) ;
#364 = EDGE_CURVE ( 'NONE', #3, #112, #45, .T. ) ;
#365 = EDGE_CURVE ( 'NONE', #5, #99, #46, .T. ) ;
#366 = EDGE_CURVE ( 'NONE', #102, #99, #47, .T. ) ;
#367 = EDGE_CURVE ( 'NONE', #105, #5, #48, .T. ) ;
#368 = EDGE_CURVE ( 'NONE', #5, #108, #195, .T. ) ;
#369 = EDGE_CURVE ( 'NONE', #103, #104, #189, .T. ) ;
#370 = EDGE_CURVE ( 'NONE', #101, #103, #49, .T. ) ;
#371 = EDGE_CURVE ( 'NONE', #100, #110, #50, .T. ) ;
#372 = EDGE_CURVE ( 'NONE', #106, #104, #51, .T. ) ;
#373 = EDGE_CURVE ( 'NONE', #99, #4, #149, .T. ) ;
#374 = EDGE_CURVE ( 'NONE', #106, #1, #151, .T. ) ;
#375 = EDGE_CURVE ( 'NONE', #110, #106, #181, .T. ) ;
#376 = EDGE_CURVE ( 'NONE', #104, #107, #166, .T. ) ;
#377 = EDGE_CURVE ( 'NONE', #110, #103, #52, .T. ) ;
#378 = ADVANCED_FACE ( 'NONE', ( #53 ), #282, .F. ) ;
#379 = ADVANCED_FACE ( 'NONE', ( #38 ), #54, .F. ) ;
#380 = ADVANCED_FACE ( 'NONE', ( #55 ), #232, .F. ) ;
#381 = LOCAL_TIME ( 9, 57, 1.000000000000000000, #25 ) ;
#382 = LOCAL_TIME ( 9, 57, 1.000000000000000000, #30 ) ;
#383 = LOCAL_TIME ( 9, 57, 1.000000000000000000, #37 ) ;
#384 = LOCAL_TIME ( 9, 57, 1.000000000000000000, #18 ) ;
ENDSEC;
END-ISO-10303-21;
