ISO-10303-21;
HEADER;
FILE_DESCRIPTION (( 'STEP AP203' ),
    '1' );
FILE_NAME ('step_32704.step',
    '2014-06-05T19:28:38',
    ( '' ),
    ( '' ),
    'SwSTEP 2.0',
    'SolidWorks 2014',
    '' );
FILE_SCHEMA (( 'CONFIG_CONTROL_DESIGN' ));
ENDSEC;

DATA;
#1 = DIRECTION ( 'NONE',  ( -0.0000000000000000000, -0.0000000000000000000, -1.000000000000000000 ) ) ;
#2 = PLANE ( 'NONE',  #178 ) ;
#3 = CARTESIAN_POINT ( 'NONE',  ( 0.0000000000000000000, 0.0000000000000000000, 50.00000000000000000 ) ) ;
#4 = CARTESIAN_POINT ( 'NONE',  ( 50.00000000000000000, 50.00000000000000000, 50.00000000000000000 ) ) ;
#5 = FACE_OUTER_BOUND ( 'NONE', #314, .T. ) ;
#6 = DIRECTION ( 'NONE',  ( -1.000000000000000000, 0.0000000000000000000, 0.0000000000000000000 ) ) ;
#7 = DIRECTION ( 'NONE',  ( 0.7071067811865475700, -0.7071067811865475700, 0.0000000000000000000 ) ) ;
#8 = DIRECTION ( 'NONE',  ( 0.7071067811865474600, 0.7071067811865474600, 0.0000000000000000000 ) ) ;
#9 = CARTESIAN_POINT ( 'NONE',  ( 50.00000000000000700, 3.673940397442059200E-015, 50.00000000000000000 ) ) ;
#10 = DATE_AND_TIME ( #83, #154 ) ;
#11 = CC_DESIGN_PERSON_AND_ORGANIZATION_ASSIGNMENT ( #271, #293, ( #32 ) ) ;
#12 = PRODUCT ( 'step_32704', 'step_32704', '', ( #168 ) ) ;
#13 = ORIENTED_EDGE ( 'NONE', *, *, #262, .F. ) ;
#14 = ADVANCED_FACE ( 'NONE', ( #22 ), #169, .F. ) ;
#15 = CARTESIAN_POINT ( 'NONE',  ( 0.0000000000000000000, 50.00000000000000000, 50.00000000000000000 ) ) ;
#16 = ORIENTED_EDGE ( 'NONE', *, *, #210, .T. ) ;
#17 = CARTESIAN_POINT ( 'NONE',  ( 0.0000000000000000000, 0.0000000000000000000, 0.0000000000000000000 ) ) ;
#18 = EDGE_LOOP ( 'NONE', ( #88, #183, #96 ) ) ;
#19 = PERSON_AND_ORGANIZATION ( #105, #200 ) ;
#20 = CARTESIAN_POINT ( 'NONE',  ( 0.0000000000000000000, 0.0000000000000000000, 50.00000000000000000 ) ) ;
#21 = DIRECTION ( 'NONE',  ( -1.000000000000000000, -0.0000000000000000000, -0.0000000000000000000 ) ) ;
#22 = FACE_OUTER_BOUND ( 'NONE', #240, .T. ) ;
#23 = DIRECTION ( 'NONE',  ( -0.0000000000000000000, -0.0000000000000000000, -1.000000000000000000 ) ) ;
#24 = CARTESIAN_POINT ( 'NONE',  ( 0.0000000000000000000, 0.0000000000000000000, 50.00000000000000000 ) ) ;
#25 = DIRECTION ( 'NONE',  ( 0.0000000000000000000, 0.0000000000000000000, 1.000000000000000000 ) ) ;
#26 = DIRECTION ( 'NONE',  ( 1.000000000000000000, 0.0000000000000000000, -0.0000000000000000000 ) ) ;
#27 = ORIENTED_EDGE ( 'NONE', *, *, #304, .F. ) ;
#28 = DIRECTION ( 'NONE',  ( 1.000000000000000000, 0.0000000000000000000, -0.0000000000000000000 ) ) ;
#29 = LOCAL_TIME ( 12, 28, 38.00000000000000000, #103 ) ;
#30 = PLANE ( 'NONE',  #211 ) ;
#31 = DIRECTION ( 'NONE',  ( -0.0000000000000000000, -0.0000000000000000000, -1.000000000000000000 ) ) ;
#32 = SECURITY_CLASSIFICATION ( '', '', #289 ) ;
#33 = EDGE_CURVE ( 'NONE', #121, #106, #291, .T. ) ;
#34 = ORIENTED_EDGE ( 'NONE', *, *, #91, .F. ) ;
#35 = CARTESIAN_POINT ( 'NONE',  ( 0.0000000000000000000, 0.0000000000000000000, 50.00000000000000000 ) ) ;
#36 = CC_DESIGN_PERSON_AND_ORGANIZATION_ASSIGNMENT ( #19, #285, ( #63 ) ) ;
#37 = DIRECTION ( 'NONE',  ( 0.0000000000000000000, 0.0000000000000000000, 1.000000000000000000 ) ) ;
#38 = ORIENTED_EDGE ( 'NONE', *, *, #33, .T. ) ;
#39 = CALENDAR_DATE ( 2014, 5, 6 ) ;
#40 = EDGE_LOOP ( 'NONE', ( #184, #222, #237, #42 ) ) ;
#41 = CC_DESIGN_PERSON_AND_ORGANIZATION_ASSIGNMENT ( #93, #283, ( #63 ) ) ;
#42 = ORIENTED_EDGE ( 'NONE', *, *, #175, .T. ) ;
#43 = CARTESIAN_POINT ( 'NONE',  ( 0.0000000000000000000, 0.0000000000000000000, 0.0000000000000000000 ) ) ;
#44 =( LENGTH_UNIT ( ) NAMED_UNIT ( * ) SI_UNIT ( .MILLI., .METRE. ) );
#45 = MANIFOLD_SOLID_BREP ( 'Boss-Extrude1', #198 ) ;
#46 = LINE ( 'NONE', #227, #241 ) ;
#47 = VECTOR ( 'NONE', #196, 1000.000000000000000 ) ;
#48 = ADVANCED_FACE ( 'NONE', ( #135 ), #100, .F. ) ;
#49 = DATE_AND_TIME ( #125, #187 ) ;
#50 = CC_DESIGN_APPROVAL ( #59, ( #63 ) ) ;
#51 = ORIENTED_EDGE ( 'NONE', *, *, #68, .T. ) ;
#52 = VERTEX_POINT ( 'NONE', #273 ) ;
#53 = LINE ( 'NONE', #112, #77 ) ;
#54 = VECTOR ( 'NONE', #192, 1000.000000000000000 ) ;
#55 = LINE ( 'NONE', #259, #213 ) ;
#56 = DIRECTION ( 'NONE',  ( -0.0000000000000000000, -1.000000000000000000, -0.0000000000000000000 ) ) ;
#57 = LINE ( 'NONE', #17, #223 ) ;
#58 = ORIENTED_EDGE ( 'NONE', *, *, #85, .T. ) ;
#59 = APPROVAL ( #279, 'UNSPECIFIED' ) ;
#60 = CARTESIAN_POINT ( 'NONE',  ( 0.0000000000000000000, 0.0000000000000000000, 0.0000000000000000000 ) ) ;
#61 = PERSON_AND_ORGANIZATION ( #105, #200 ) ;
#62 = ORIENTED_EDGE ( 'NONE', *, *, #70, .T. ) ;
#63 = PRODUCT_DEFINITION_FORMATION_WITH_SPECIFIED_SOURCE ( 'ANY', '', #12, .NOT_KNOWN. ) ;
#64 = CARTESIAN_POINT ( 'NONE',  ( 0.0000000000000000000, 0.0000000000000000000, 50.00000000000000000 ) ) ;
#65 = ORIENTED_EDGE ( 'NONE', *, *, #262, .T. ) ;
#66 = DATE_TIME_ROLE ( 'creation_date' ) ;
#67 = CC_DESIGN_DATE_AND_TIME_ASSIGNMENT ( #284, #66, ( #97 ) ) ;
#68 = EDGE_CURVE ( 'NONE', #312, #71, #46, .T. ) ;
#69 = CC_DESIGN_PERSON_AND_ORGANIZATION_ASSIGNMENT ( #243, #307, ( #97 ) ) ;
#70 = EDGE_CURVE ( 'NONE', #106, #312, #53, .T. ) ;
#71 = VERTEX_POINT ( 'NONE', #228 ) ;
#72 = CC_DESIGN_APPROVAL ( #87, ( #97 ) ) ;
#73 = ADVANCED_FACE ( 'NONE', ( #90 ), #30, .T. ) ;
#74 = PLANE ( 'NONE',  #195 ) ;
#75 = ORIENTED_EDGE ( 'NONE', *, *, #166, .T. ) ;
#76 = CARTESIAN_POINT ( 'NONE',  ( 0.0000000000000000000, 0.0000000000000000000, 0.0000000000000000000 ) ) ;
#77 = VECTOR ( 'NONE', #270, 1000.000000000000100 ) ;
#78 = VERTEX_POINT ( 'NONE', #321 ) ;
#79 = LOCAL_TIME ( 12, 28, 38.00000000000000000, #146 ) ;
#80 = CARTESIAN_POINT ( 'NONE',  ( 0.0000000000000000000, 0.0000000000000000000, 0.0000000000000000000 ) ) ;
#81 = DIRECTION ( 'NONE',  ( -1.000000000000000000, -1.387778780781445900E-016, 0.0000000000000000000 ) ) ;
#82 = CLOSED_SHELL ( 'NONE', ( #130, #14, #265, #280, #246 ) ) ;
#83 = CALENDAR_DATE ( 2014, 5, 6 ) ;
#84 = CARTESIAN_POINT ( 'NONE',  ( 0.0000000000000000000, 0.0000000000000000000, 50.00000000000000000 ) ) ;
#85 = EDGE_CURVE ( 'NONE', #78, #121, #136, .T. ) ;
#86 = LINE ( 'NONE', #20, #272 ) ;
#87 = APPROVAL ( #317, 'UNSPECIFIED' ) ;
#88 = ORIENTED_EDGE ( 'NONE', *, *, #68, .F. ) ;
#89 = DIRECTION ( 'NONE',  ( 0.0000000000000000000, 0.0000000000000000000, -1.000000000000000000 ) ) ;
#90 = FACE_OUTER_BOUND ( 'NONE', #206, .T. ) ;
#91 = EDGE_CURVE ( 'NONE', #121, #219, #86, .T. ) ;
#92 = ORIENTED_EDGE ( 'NONE', *, *, #264, .F. ) ;
#93 = PERSON_AND_ORGANIZATION ( #105, #200 ) ;
#94 = EDGE_CURVE ( 'NONE', #71, #106, #171, .T. ) ;
#95 = DIRECTION ( 'NONE',  ( 0.0000000000000000000, -0.0000000000000000000, -1.000000000000000000 ) ) ;
#96 = ORIENTED_EDGE ( 'NONE', *, *, #94, .F. ) ;
#97 = PRODUCT_DEFINITION ( 'UNKNOWN', '', #63, #124 ) ;
#98 = CARTESIAN_POINT ( 'NONE',  ( 50.00000000000000700, 3.673940397442059200E-015, 50.00000000000000000 ) ) ;
#99 = DIRECTION ( 'NONE',  ( 0.7071067811865474600, 0.7071067811865474600, -0.0000000000000000000 ) ) ;
#100 = PLANE ( 'NONE',  #128 ) ;
#101 = CARTESIAN_POINT ( 'NONE',  ( 0.0000000000000000000, 0.0000000000000000000, 0.0000000000000000000 ) ) ;
#102 = CARTESIAN_POINT ( 'NONE',  ( 50.00000000000000000, 50.00000000000000000, 50.00000000000000000 ) ) ;
#103 = COORDINATED_UNIVERSAL_TIME_OFFSET ( 7, 0, .BEHIND. ) ;
#104 = ORIENTED_EDGE ( 'NONE', *, *, #94, .T. ) ;
#105 = PERSON ( 'UNSPECIFIED', 'UNSPECIFIED', 'UNSPECIFIED', ('UNSPECIFIED'), ('UNSPECIFIED'), ('UNSPECIFIED') ) ;
#106 = VERTEX_POINT ( 'NONE', #111 ) ;
#107 = CARTESIAN_POINT ( 'NONE',  ( 50.00000000000000000, 50.00000000000000000, 50.00000000000000000 ) ) ;
#108 = CC_DESIGN_APPROVAL ( #248, ( #32 ) ) ;
#109 = CARTESIAN_POINT ( 'NONE',  ( 50.00000000000000000, 50.00000000000000000, 0.0000000000000000000 ) ) ;
#110 = CC_DESIGN_PERSON_AND_ORGANIZATION_ASSIGNMENT ( #129, #250, ( #12 ) ) ;
#111 = CARTESIAN_POINT ( 'NONE',  ( 50.00000000000000000, 50.00000000000000000, 0.0000000000000000000 ) ) ;
#112 = CARTESIAN_POINT ( 'NONE',  ( 0.0000000000000000000, 0.0000000000000000000, 0.0000000000000000000 ) ) ;
#113 = DIRECTION ( 'NONE',  ( -0.7071067811865474600, -0.7071067811865474600, -0.0000000000000000000 ) ) ;
#114 = LOCAL_TIME ( 12, 28, 38.00000000000000000, #181 ) ;
#115 = DIRECTION ( 'NONE',  ( 1.387778780781445900E-016, -1.000000000000000000, 0.0000000000000000000 ) ) ;
#116 = LINE ( 'NONE', #9, #221 ) ;
#117 = CARTESIAN_POINT ( 'NONE',  ( 50.00000000000000000, 50.00000000000000000, 50.00000000000000000 ) ) ;
#118 = DIRECTION ( 'NONE',  ( -0.0000000000000000000, -0.0000000000000000000, -1.000000000000000000 ) ) ;
#119 = EDGE_LOOP ( 'NONE', ( #311, #140, #16 ) ) ;
#120 = DIRECTION ( 'NONE',  ( 1.000000000000000000, 7.347880794884116500E-017, -0.0000000000000000000 ) ) ;
#121 = VERTEX_POINT ( 'NONE', #315 ) ;
#122 = VECTOR ( 'NONE', #99, 1000.000000000000100 ) ;
#123 = AXIS2_PLACEMENT_3D ( 'NONE', #60, #316, #255 ) ;
#124 = DESIGN_CONTEXT ( 'detailed design', #288, 'design' ) ;
#125 = CALENDAR_DATE ( 2014, 5, 6 ) ;
#126 = PLANE ( 'NONE',  #303 ) ;
#127 = VECTOR ( 'NONE', #188, 1000.000000000000100 ) ;
#128 = AXIS2_PLACEMENT_3D ( 'NONE', #84, #89, #6 ) ;
#129 = PERSON_AND_ORGANIZATION ( #105, #200 ) ;
#130 = ADVANCED_FACE ( 'NONE', ( #249 ), #126, .F. ) ;
#131 = FACE_OUTER_BOUND ( 'NONE', #242, .T. ) ;
#132 = DIRECTION ( 'NONE',  ( -0.0000000000000000000, -0.0000000000000000000, -1.000000000000000000 ) ) ;
#133 = FACE_OUTER_BOUND ( 'NONE', #18, .T. ) ;
#134 = DIRECTION ( 'NONE',  ( 1.000000000000000000, 7.347880794884116500E-017, -0.0000000000000000000 ) ) ;
#135 = FACE_OUTER_BOUND ( 'NONE', #119, .T. ) ;
#136 = LINE ( 'NONE', #4, #47 ) ;
#137 = LINE ( 'NONE', #170, #310 ) ;
#138 = LINE ( 'NONE', #35, #313 ) ;
#139 = ORIENTED_EDGE ( 'NONE', *, *, #319, .F. ) ;
#140 = ORIENTED_EDGE ( 'NONE', *, *, #277, .T. ) ;
#141 = CC_DESIGN_DATE_AND_TIME_ASSIGNMENT ( #10, #295, ( #32 ) ) ;
#142 = DIRECTION ( 'NONE',  ( -0.0000000000000000000, -1.000000000000000000, -0.0000000000000000000 ) ) ;
#143 = VERTEX_POINT ( 'NONE', #101 ) ;
#144 = DIRECTION ( 'NONE',  ( -1.000000000000000000, 0.0000000000000000000, 0.0000000000000000000 ) ) ;
#145 = ORIENTED_EDGE ( 'NONE', *, *, #165, .F. ) ;
#146 = COORDINATED_UNIVERSAL_TIME_OFFSET ( 7, 0, .BEHIND. ) ;
#147 = VERTEX_POINT ( 'NONE', #176 ) ;
#148 = CARTESIAN_POINT ( 'NONE',  ( 50.00000000000000000, 50.00000000000000000, 0.0000000000000000000 ) ) ;
#149 = DIRECTION ( 'NONE',  ( -0.7071067811865474600, -0.7071067811865474600, 0.0000000000000000000 ) ) ;
#150 = LINE ( 'NONE', #102, #122 ) ;
#151 = ADVANCED_FACE ( 'NONE', ( #180 ), #215, .F. ) ;
#152 = EDGE_LOOP ( 'NONE', ( #51, #267, #172, #286 ) ) ;
#153 = VECTOR ( 'NONE', #142, 1000.000000000000000 ) ;
#154 = LOCAL_TIME ( 12, 28, 38.00000000000000000, #225 ) ;
#155 = VERTEX_POINT ( 'NONE', #197 ) ;
#156 = EDGE_CURVE ( 'NONE', #78, #71, #191, .T. ) ;
#157 = EDGE_LOOP ( 'NONE', ( #65, #92, #306, #75 ) ) ;
#158 = DIRECTION ( 'NONE',  ( -0.7071067811865475700, 0.7071067811865475700, 0.0000000000000000000 ) ) ;
#159 = CARTESIAN_POINT ( 'NONE',  ( 0.0000000000000000000, 0.0000000000000000000, 50.00000000000000000 ) ) ;
#160 = DIRECTION ( 'NONE',  ( -1.000000000000000000, -7.347880794884116500E-017, 0.0000000000000000000 ) ) ;
#161 = LINE ( 'NONE', #318, #153 ) ;
#162 = APPROVAL_DATE_TIME ( #232, #59 ) ;
#163 = ORIENTED_EDGE ( 'NONE', *, *, #277, .F. ) ;
#164 = VERTEX_POINT ( 'NONE', #64 ) ;
#165 = EDGE_CURVE ( 'NONE', #147, #52, #269, .T. ) ;
#166 = EDGE_CURVE ( 'NONE', #164, #143, #231, .T. ) ;
#167 = ORIENTED_EDGE ( 'NONE', *, *, #165, .T. ) ;
#168 = MECHANICAL_CONTEXT ( 'NONE', #278, 'mechanical' ) ;
#169 = PLANE ( 'NONE',  #233 ) ;
#170 = CARTESIAN_POINT ( 'NONE',  ( 0.0000000000000000000, 50.00000000000000000, 50.00000000000000000 ) ) ;
#171 = LINE ( 'NONE', #148, #226 ) ;
#172 = ORIENTED_EDGE ( 'NONE', *, *, #274, .F. ) ;
#173 = DIRECTION ( 'NONE',  ( 0.0000000000000000000, 0.0000000000000000000, -1.000000000000000000 ) ) ;
#174 = APPROVAL_PERSON_ORGANIZATION ( #236, #59, #281 ) ;
#175 = EDGE_CURVE ( 'NONE', #230, #52, #137, .T. ) ;
#176 = CARTESIAN_POINT ( 'NONE',  ( 50.00000000000000000, 50.00000000000000000, 0.0000000000000000000 ) ) ;
#177 = ADVANCED_FACE ( 'NONE', ( #131 ), #234, .F. ) ;
#178 = AXIS2_PLACEMENT_3D ( 'NONE', #24, #25, #28 ) ;
#179 = LINE ( 'NONE', #15, #216 ) ;
#180 = FACE_OUTER_BOUND ( 'NONE', #157, .T. ) ;
#181 = COORDINATED_UNIVERSAL_TIME_OFFSET ( 7, 0, .BEHIND. ) ;
#182 =( NAMED_UNIT ( * ) PLANE_ANGLE_UNIT ( ) SI_UNIT ( $, .RADIAN. ) );
#183 = ORIENTED_EDGE ( 'NONE', *, *, #70, .F. ) ;
#184 = ORIENTED_EDGE ( 'NONE', *, *, #319, .T. ) ;
#185 = CC_DESIGN_SECURITY_CLASSIFICATION ( #32, ( #63 ) ) ;
#186 = EDGE_CURVE ( 'NONE', #164, #155, #150, .T. ) ;
#187 = LOCAL_TIME ( 12, 28, 38.00000000000000000, #247 ) ;
#188 = DIRECTION ( 'NONE',  ( 0.7071067811865474600, 0.7071067811865474600, -0.0000000000000000000 ) ) ;
#189 =( GEOMETRIC_REPRESENTATION_CONTEXT ( 3 ) GLOBAL_UNCERTAINTY_ASSIGNED_CONTEXT ( ( #254 ) ) GLOBAL_UNIT_ASSIGNED_CONTEXT ( ( #44, #182, #252 ) ) REPRESENTATION_CONTEXT ( 'NONE', 'WORKASPACE' ) );
#190 = ORIENTED_EDGE ( 'NONE', *, *, #33, .F. ) ;
#191 = LINE ( 'NONE', #98, #305 ) ;
#192 = DIRECTION ( 'NONE',  ( -1.000000000000000000, -0.0000000000000000000, -0.0000000000000000000 ) ) ;
#193 = PLANE ( 'NONE',  #207 ) ;
#194 = PRODUCT_RELATED_PRODUCT_CATEGORY ( 'detail', '', ( #12 ) ) ;
#195 = AXIS2_PLACEMENT_3D ( 'NONE', #3, #7, #8 ) ;
#196 = DIRECTION ( 'NONE',  ( -1.387778780781445900E-016, 1.000000000000000000, -0.0000000000000000000 ) ) ;
#197 = CARTESIAN_POINT ( 'NONE',  ( 50.00000000000000000, 50.00000000000000000, 50.00000000000000000 ) ) ;
#198 = CLOSED_SHELL ( 'NONE', ( #151, #177, #204, #48, #73 ) ) ;
#199 = DIRECTION ( 'NONE',  ( 0.0000000000000000000, 0.0000000000000000000, -1.000000000000000000 ) ) ;
#200 = ORGANIZATION ( 'UNSPECIFIED', 'UNSPECIFIED', '' ) ;
#201 = DIRECTION ( 'NONE',  ( 0.0000000000000000000, -1.000000000000000000, 0.0000000000000000000 ) ) ;
#202 = CARTESIAN_POINT ( 'NONE',  ( 0.0000000000000000000, 50.00000000000000000, 50.00000000000000000 ) ) ;
#203 = ORIENTED_EDGE ( 'NONE', *, *, #175, .F. ) ;
#204 = ADVANCED_FACE ( 'NONE', ( #217 ), #253, .F. ) ;
#205 = ADVANCED_BREP_SHAPE_REPRESENTATION ( 'step_32704', ( #45, #298, #123 ), #189 ) ;
#206 = EDGE_LOOP ( 'NONE', ( #13, #139, #145 ) ) ;
#207 = AXIS2_PLACEMENT_3D ( 'NONE', #80, #37, #26 ) ;
#208 = DIRECTION ( 'NONE',  ( 1.000000000000000000, 0.0000000000000000000, 0.0000000000000000000 ) ) ;
#209 = APPROVAL_DATE_TIME ( #263, #248 ) ;
#210 = EDGE_CURVE ( 'NONE', #230, #164, #161, .T. ) ;
#211 = AXIS2_PLACEMENT_3D ( 'NONE', #76, #199, #144 ) ;
#212 = CARTESIAN_POINT ( 'NONE',  ( 0.0000000000000000000, 0.0000000000000000000, 50.00000000000000000 ) ) ;
#213 = VECTOR ( 'NONE', #1, 1000.000000000000000 ) ;
#214 = ORIENTED_EDGE ( 'NONE', *, *, #156, .T. ) ;
#215 = PLANE ( 'NONE',  #266 ) ;
#216 = VECTOR ( 'NONE', #21, 1000.000000000000000 ) ;
#217 = FACE_OUTER_BOUND ( 'NONE', #40, .T. ) ;
#218 = DIRECTION ( 'NONE',  ( -0.0000000000000000000, -0.0000000000000000000, -1.000000000000000000 ) ) ;
#219 = VERTEX_POINT ( 'NONE', #212 ) ;
#220 = APPROVAL_PERSON_ORGANIZATION ( #268, #248, #297 ) ;
#221 = VECTOR ( 'NONE', #134, 1000.000000000000000 ) ;
#222 = ORIENTED_EDGE ( 'NONE', *, *, #166, .F. ) ;
#223 = VECTOR ( 'NONE', #56, 1000.000000000000000 ) ;
#224 = AXIS2_PLACEMENT_3D ( 'NONE', #244, #208, #173 ) ;
#225 = COORDINATED_UNIVERSAL_TIME_OFFSET ( 7, 0, .BEHIND. ) ;
#226 = VECTOR ( 'NONE', #245, 1000.000000000000000 ) ;
#227 = CARTESIAN_POINT ( 'NONE',  ( 50.00000000000000700, 3.673940397442059200E-015, 0.0000000000000000000 ) ) ;
#228 = CARTESIAN_POINT ( 'NONE',  ( 50.00000000000000700, 3.673940397442059200E-015, 0.0000000000000000000 ) ) ;
#229 = CARTESIAN_POINT ( 'NONE',  ( 0.0000000000000000000, 50.00000000000000000, 50.00000000000000000 ) ) ;
#230 = VERTEX_POINT ( 'NONE', #202 ) ;
#231 = LINE ( 'NONE', #159, #292 ) ;
#232 = DATE_AND_TIME ( #275, #29 ) ;
#233 = AXIS2_PLACEMENT_3D ( 'NONE', #107, #81, #115 ) ;
#234 = PLANE ( 'NONE',  #239 ) ;
#235 = APPLICATION_PROTOCOL_DEFINITION ( 'international standard', 'config_control_design', 1994, #288 ) ;
#236 = PERSON_AND_ORGANIZATION ( #105, #200 ) ;
#237 = ORIENTED_EDGE ( 'NONE', *, *, #210, .F. ) ;
#238 = LINE ( 'NONE', #109, #127 ) ;
#239 = AXIS2_PLACEMENT_3D ( 'NONE', #229, #201, #95 ) ;
#240 = EDGE_LOOP ( 'NONE', ( #104, #190, #294, #214 ) ) ;
#241 = VECTOR ( 'NONE', #120, 1000.000000000000000 ) ;
#242 = EDGE_LOOP ( 'NONE', ( #167, #203, #163, #308 ) ) ;
#243 = PERSON_AND_ORGANIZATION ( #105, #200 ) ;
#244 = CARTESIAN_POINT ( 'NONE',  ( 0.0000000000000000000, 0.0000000000000000000, 50.00000000000000000 ) ) ;
#245 = DIRECTION ( 'NONE',  ( -1.387778780781445900E-016, 1.000000000000000000, -0.0000000000000000000 ) ) ;
#246 = ADVANCED_FACE ( 'NONE', ( #133 ), #193, .F. ) ;
#247 = COORDINATED_UNIVERSAL_TIME_OFFSET ( 7, 0, .BEHIND. ) ;
#248 = APPROVAL ( #296, 'UNSPECIFIED' ) ;
#249 = FACE_OUTER_BOUND ( 'NONE', #152, .T. ) ;
#250 = PERSON_AND_ORGANIZATION_ROLE ( 'design_owner' ) ;
#251 = CARTESIAN_POINT ( 'NONE',  ( 0.0000000000000000000, 50.00000000000000000, 0.0000000000000000000 ) ) ;
#252 =( NAMED_UNIT ( * ) SI_UNIT ( $, .STERADIAN. ) SOLID_ANGLE_UNIT ( ) );
#253 = PLANE ( 'NONE',  #224 ) ;
#254 = UNCERTAINTY_MEASURE_WITH_UNIT (LENGTH_MEASURE( 1.000000000000000100E-005 ), #44, 'distance_accuracy_value', 'NONE');
#255 = DIRECTION ( 'NONE',  ( 1.000000000000000000, 0.0000000000000000000, 0.0000000000000000000 ) ) ;
#256 = SHAPE_DEFINITION_REPRESENTATION ( #282, #205 ) ;
#257 = CARTESIAN_POINT ( 'NONE',  ( 50.00000000000000000, 50.00000000000000000, 50.00000000000000000 ) ) ;
#258 = FACE_OUTER_BOUND ( 'NONE', #287, .T. ) ;
#259 = CARTESIAN_POINT ( 'NONE',  ( 50.00000000000000000, 50.00000000000000000, 50.00000000000000000 ) ) ;
#260 = ORIENTED_EDGE ( 'NONE', *, *, #274, .T. ) ;
#261 = DIRECTION ( 'NONE',  ( -7.347880794884116500E-017, 1.000000000000000000, 0.0000000000000000000 ) ) ;
#262 = EDGE_CURVE ( 'NONE', #143, #147, #238, .T. ) ;
#263 = DATE_AND_TIME ( #320, #79 ) ;
#264 = EDGE_CURVE ( 'NONE', #155, #147, #55, .T. ) ;
#265 = ADVANCED_FACE ( 'NONE', ( #5 ), #74, .F. ) ;
#266 = AXIS2_PLACEMENT_3D ( 'NONE', #257, #158, #149 ) ;
#267 = ORIENTED_EDGE ( 'NONE', *, *, #156, .F. ) ;
#268 = PERSON_AND_ORGANIZATION ( #105, #200 ) ;
#269 = LINE ( 'NONE', #251, #54 ) ;
#270 = DIRECTION ( 'NONE',  ( -0.7071067811865474600, -0.7071067811865474600, -0.0000000000000000000 ) ) ;
#271 = PERSON_AND_ORGANIZATION ( #105, #200 ) ;
#272 = VECTOR ( 'NONE', #113, 1000.000000000000100 ) ;
#273 = CARTESIAN_POINT ( 'NONE',  ( 0.0000000000000000000, 50.00000000000000000, 0.0000000000000000000 ) ) ;
#274 = EDGE_CURVE ( 'NONE', #219, #78, #116, .T. ) ;
#275 = CALENDAR_DATE ( 2014, 5, 6 ) ;
#276 = APPROVAL_ROLE ( '' ) ;
#277 = EDGE_CURVE ( 'NONE', #155, #230, #179, .T. ) ;
#278 = APPLICATION_CONTEXT ( 'configuration controlled 3d designs of mechanical parts and assemblies' ) ;
#279 = APPROVAL_STATUS ( 'not_yet_approved' ) ;
#280 = ADVANCED_FACE ( 'NONE', ( #258 ), #2, .T. ) ;
#281 = APPROVAL_ROLE ( '' ) ;
#282 = PRODUCT_DEFINITION_SHAPE ( 'NONE', 'NONE',  #97 ) ;
#283 = PERSON_AND_ORGANIZATION_ROLE ( 'creator' ) ;
#284 = DATE_AND_TIME ( #39, #114 ) ;
#285 = PERSON_AND_ORGANIZATION_ROLE ( 'design_supplier' ) ;
#286 = ORIENTED_EDGE ( 'NONE', *, *, #304, .T. ) ;
#287 = EDGE_LOOP ( 'NONE', ( #260, #58, #300 ) ) ;
#288 = APPLICATION_CONTEXT ( 'configuration controlled 3d designs of mechanical parts and assemblies' ) ;
#289 = SECURITY_CLASSIFICATION_LEVEL ( 'unclassified' ) ;
#290 = APPROVAL_DATE_TIME ( #49, #87 ) ;
#291 = LINE ( 'NONE', #117, #302 ) ;
#292 = VECTOR ( 'NONE', #132, 1000.000000000000000 ) ;
#293 = PERSON_AND_ORGANIZATION_ROLE ( 'classification_officer' ) ;
#294 = ORIENTED_EDGE ( 'NONE', *, *, #85, .F. ) ;
#295 = DATE_TIME_ROLE ( 'classification_date' ) ;
#296 = APPROVAL_STATUS ( 'not_yet_approved' ) ;
#297 = APPROVAL_ROLE ( '' ) ;
#298 = MANIFOLD_SOLID_BREP ( 'Boss-Extrude2', #82 ) ;
#299 = APPLICATION_PROTOCOL_DEFINITION ( 'international standard', 'config_control_design', 1994, #278 ) ;
#300 = ORIENTED_EDGE ( 'NONE', *, *, #91, .T. ) ;
#301 = APPROVAL_PERSON_ORGANIZATION ( #61, #87, #276 ) ;
#302 = VECTOR ( 'NONE', #31, 1000.000000000000000 ) ;
#303 = AXIS2_PLACEMENT_3D ( 'NONE', #309, #261, #160 ) ;
#304 = EDGE_CURVE ( 'NONE', #219, #312, #138, .T. ) ;
#305 = VECTOR ( 'NONE', #218, 1000.000000000000000 ) ;
#306 = ORIENTED_EDGE ( 'NONE', *, *, #186, .F. ) ;
#307 = PERSON_AND_ORGANIZATION_ROLE ( 'creator' ) ;
#308 = ORIENTED_EDGE ( 'NONE', *, *, #264, .T. ) ;
#309 = CARTESIAN_POINT ( 'NONE',  ( 50.00000000000000700, 3.673940397442059200E-015, 50.00000000000000000 ) ) ;
#310 = VECTOR ( 'NONE', #118, 1000.000000000000000 ) ;
#311 = ORIENTED_EDGE ( 'NONE', *, *, #186, .T. ) ;
#312 = VERTEX_POINT ( 'NONE', #43 ) ;
#313 = VECTOR ( 'NONE', #23, 1000.000000000000000 ) ;
#314 = EDGE_LOOP ( 'NONE', ( #62, #27, #34, #38 ) ) ;
#315 = CARTESIAN_POINT ( 'NONE',  ( 50.00000000000000000, 50.00000000000000000, 50.00000000000000000 ) ) ;
#316 = DIRECTION ( 'NONE',  ( 0.0000000000000000000, 0.0000000000000000000, 1.000000000000000000 ) ) ;
#317 = APPROVAL_STATUS ( 'not_yet_approved' ) ;
#318 = CARTESIAN_POINT ( 'NONE',  ( 0.0000000000000000000, 0.0000000000000000000, 50.00000000000000000 ) ) ;
#319 = EDGE_CURVE ( 'NONE', #52, #143, #57, .T. ) ;
#320 = CALENDAR_DATE ( 2014, 5, 6 ) ;
#321 = CARTESIAN_POINT ( 'NONE',  ( 50.00000000000000700, 3.673940397442059200E-015, 50.00000000000000000 ) ) ;
ENDSEC;
END-ISO-10303-21;
