ISO-10303-21;
HEADER;
FILE_DESCRIPTION (( 'STEP AP214' ),
    '1' );
FILE_NAME ('4781-E0W.STEP',
    '2009-12-21T17:04:44',
    ( ' ' ),
    ( ' ' ),
    'SwSTEP 2.0',
    'SolidWorks 2009',
    '' );
FILE_SCHEMA (( 'AUTOMOTIVE_DESIGN' ));
ENDSEC;

DATA;
#1 = EDGE_LOOP ( 'NONE', ( #19, #13, #22, #20 ) ) ;
#2 = MANIFOLD_SOLID_BREP ( 'NONE', #261 ) ;
#3 = VERTEX_POINT ( 'NONE', #52 ) ;
#4 = ADVANCED_FACE ( 'NONE', ( #51 ), #66, .F. ) ;
#5 = EDGE_LOOP ( 'NONE', ( #8, #10, #246, #247 ) ) ;
#6 = ADVANCED_FACE ( 'NONE', ( #120 ), #123, .F. ) ;
#7 = EDGE_CURVE ( 'NONE', #27, #24, #97, .T. ) ;
#8 = ORIENTED_EDGE ( 'NONE', *, *, #14, .F. ) ;
#9 = ORIENTED_EDGE ( 'NONE', *, *, #7, .F. ) ;
#10 = ORIENTED_EDGE ( 'NONE', *, *, #17, .T. ) ;
#11 = EDGE_CURVE ( 'NONE', #12, #24, #108, .T. ) ;
#12 = VERTEX_POINT ( 'NONE', #77 ) ;
#13 = ORIENTED_EDGE ( 'NONE', *, *, #14, .T. ) ;
#14 = EDGE_CURVE ( 'NONE', #3, #12, #110, .T. ) ;
#15 = VERTEX_POINT ( 'NONE', #117 ) ;
#16 = ORIENTED_EDGE ( 'NONE', *, *, #25, .F. ) ;
#17 = EDGE_CURVE ( 'NONE', #3, #21, #92, .T. ) ;
#18 = ORIENTED_EDGE ( 'NONE', *, *, #23, .F. ) ;
#19 = ORIENTED_EDGE ( 'NONE', *, *, #17, .F. ) ;
#20 = ORIENTED_EDGE ( 'NONE', *, *, #23, .T. ) ;
#21 = VERTEX_POINT ( 'NONE', #113 ) ;
#22 = ORIENTED_EDGE ( 'NONE', *, *, #11, .T. ) ;
#23 = EDGE_CURVE ( 'NONE', #24, #21, #104, .T. ) ;
#24 = VERTEX_POINT ( 'NONE', #126 ) ;
#25 = EDGE_CURVE ( 'NONE', #21, #29, #133, .T. ) ;
#26 = ORIENTED_EDGE ( 'NONE', *, *, #28, .T. ) ;
#27 = VERTEX_POINT ( 'NONE', #130 ) ;
#28 = EDGE_CURVE ( 'NONE', #15, #29, #129, .T. ) ;
#29 = VERTEX_POINT ( 'NONE', #171 ) ;
#30 = FILL_AREA_STYLE ('',( #44 ) ) ;
#31 = PRESENTATION_STYLE_ASSIGNMENT (( #53 ) ) ;
#32 = PRESENTATION_LAYER_ASSIGNMENT (  '', '', ( #33 ) ) ;
#33 = STYLED_ITEM ( 'NONE', ( #31 ), #2 ) ;
#34 = COLOUR_RGB ( '',0.7960784313725489700, 0.8235294117647058400, 0.9372549019607843100 ) ;
#35 =( LENGTH_UNIT ( ) NAMED_UNIT ( * ) SI_UNIT ( .MILLI., .METRE. ) );
#36 = SURFACE_STYLE_USAGE ( .BOTH. , #37 ) ;
#37 = SURFACE_SIDE_STYLE ('',( #38 ) ) ;
#38 = SURFACE_STYLE_FILL_AREA ( #39 ) ;
#39 = FILL_AREA_STYLE ('',( #213 ) ) ;
#40 = MECHANICAL_DESIGN_GEOMETRIC_PRESENTATION_REPRESENTATION (  '', ( #33 ), #41 ) ;
#41 =( GEOMETRIC_REPRESENTATION_CONTEXT ( 3 ) GLOBAL_UNCERTAINTY_ASSIGNED_CONTEXT ( ( #45 ) ) GLOBAL_UNIT_ASSIGNED_CONTEXT ( ( #35, #43, #46 ) ) REPRESENTATION_CONTEXT ( 'NONE', 'WORKASPACE' ) );
#42 = EDGE_CURVE ( 'NONE', #27, #15, #184, .T. ) ;
#43 =( NAMED_UNIT ( * ) PLANE_ANGLE_UNIT ( ) SI_UNIT ( $, .RADIAN. ) );
#44 = FILL_AREA_STYLE_COLOUR ( '', #34 ) ;
#45 = UNCERTAINTY_MEASURE_WITH_UNIT (LENGTH_MEASURE( 1.000000000000000100E-005 ), #35, 'distance_accuracy_value', 'NONE');
#46 =( NAMED_UNIT ( * ) SI_UNIT ( $, .STERADIAN. ) SOLID_ANGLE_UNIT ( ) );
#47 = SURFACE_SIDE_STYLE ('',( #54 ) ) ;
#48 = FILL_AREA_STYLE ('',( #49 ) ) ;
#49 = FILL_AREA_STYLE_COLOUR ( '', #50 ) ;
#50 = COLOUR_RGB ( '',0.9568627450980391500, 0.9490196078431372100, 0.9607843137254902200 ) ;
#51 = FACE_OUTER_BOUND ( 'NONE', #1, .T. ) ;
#52 = CARTESIAN_POINT ( 'NONE',  ( 0.0000000000000000000, 2.362877959700277300E-015, 0.6751680837472005000 ) ) ;
#53 = SURFACE_STYLE_USAGE ( .BOTH. , #47 ) ;
#54 = SURFACE_STYLE_FILL_AREA ( #30 ) ;
#55 =( LENGTH_UNIT ( ) NAMED_UNIT ( * ) SI_UNIT ( .MILLI., .METRE. ) );
#56 =( NAMED_UNIT ( * ) PLANE_ANGLE_UNIT ( ) SI_UNIT ( $, .RADIAN. ) );
#57 = MECHANICAL_DESIGN_GEOMETRIC_PRESENTATION_REPRESENTATION (  '', ( #73 ), #58 ) ;
#58 =( GEOMETRIC_REPRESENTATION_CONTEXT ( 3 ) GLOBAL_UNCERTAINTY_ASSIGNED_CONTEXT ( ( #59 ) ) GLOBAL_UNIT_ASSIGNED_CONTEXT ( ( #55, #56, #65 ) ) REPRESENTATION_CONTEXT ( 'NONE', 'WORKASPACE' ) );
#59 = UNCERTAINTY_MEASURE_WITH_UNIT (LENGTH_MEASURE( 1.000000000000000100E-005 ), #55, 'distance_accuracy_value', 'NONE');
#60 = VECTOR ( 'NONE', #68, 1000.000000000000000 ) ;
#61 = DIRECTION ( 'NONE',  ( 0.0000000000000000000, 1.000000000000000000, 0.0000000000000000000 ) ) ;
#62 = DIRECTION ( 'NONE',  ( -1.000000000000000000, 0.0000000000000000000, 0.0000000000000000000 ) ) ;
#63 = CARTESIAN_POINT ( 'NONE',  ( 0.0000000000000000000, 0.0000000000000000000, 39.26516808374720600 ) ) ;
#64 = AXIS2_PLACEMENT_3D ( 'NONE', #63, #62, #61 ) ;
#65 =( NAMED_UNIT ( * ) SI_UNIT ( $, .STERADIAN. ) SOLID_ANGLE_UNIT ( ) );
#66 = SPHERICAL_SURFACE ( 'NONE', #64, 38.59000000000000300 ) ;
#67 = STYLED_ITEM ( 'NONE', ( #187 ), #254 ) ;
#68 = DIRECTION ( 'NONE',  ( -0.0000000000000000000, -0.0000000000000000000, 1.000000000000000000 ) ) ;
#69 = SURFACE_STYLE_USAGE ( .BOTH. , #70 ) ;
#70 = SURFACE_SIDE_STYLE ('',( #71 ) ) ;
#71 = SURFACE_STYLE_FILL_AREA ( #48 ) ;
#72 = PRESENTATION_LAYER_ASSIGNMENT (  '', '', ( #73 ) ) ;
#73 = STYLED_ITEM ( 'NONE', ( #74 ), #4 ) ;
#74 = PRESENTATION_STYLE_ASSIGNMENT (( #69 ) ) ;
#75 = FILL_AREA_STYLE_COLOUR ( '', #112 ) ;
#76 = CARTESIAN_POINT ( 'NONE',  ( 0.0000000000000000000, 0.0000000000000000000, 39.26516808374720600 ) ) ;
#77 = CARTESIAN_POINT ( 'NONE',  ( -1.555250069354418100E-015, -12.69999999999999200, 2.824831916252802600 ) ) ;
#78 = MECHANICAL_DESIGN_GEOMETRIC_PRESENTATION_REPRESENTATION (  '', ( #67 ), #210 ) ;
#79 = DIRECTION ( 'NONE',  ( 1.000000000000000000, 0.0000000000000000000, 0.0000000000000000000 ) ) ;
#80 = DIRECTION ( 'NONE',  ( -0.0000000000000000000, -0.0000000000000000000, 1.000000000000000000 ) ) ;
#81 = CARTESIAN_POINT ( 'NONE',  ( 0.0000000000000000000, 0.0000000000000000000, 2.824831916252802600 ) ) ;
#82 = PRESENTATION_STYLE_ASSIGNMENT (( #111 ) ) ;
#83 = DIRECTION ( 'NONE',  ( 1.000000000000000000, 0.0000000000000000000, 0.0000000000000000000 ) ) ;
#84 = DIRECTION ( 'NONE',  ( -0.0000000000000000000, -0.0000000000000000000, 1.000000000000000000 ) ) ;
#85 = CARTESIAN_POINT ( 'NONE',  ( 0.0000000000000000000, 0.0000000000000000000, 2.824831916252802600 ) ) ;
#86 = AXIS2_PLACEMENT_3D ( 'NONE', #85, #84, #83 ) ;
#87 = CARTESIAN_POINT ( 'NONE',  ( 0.0000000000000000000, 0.0000000000000000000, 39.26516808374720600 ) ) ;
#88 = FILL_AREA_STYLE ('',( #75 ) ) ;
#89 = MECHANICAL_DESIGN_GEOMETRIC_PRESENTATION_REPRESENTATION (  '', ( #124 ), #122 ) ;
#90 = PRESENTATION_LAYER_ASSIGNMENT (  '', '', ( #124 ) ) ;
#91 = CARTESIAN_POINT ( 'NONE',  ( 0.0000000000000000000, 0.0000000000000000000, 39.26516808374720600 ) ) ;
#92 = CIRCLE ( 'NONE', #116, 38.59000000000000300 ) ;
#93 = DIRECTION ( 'NONE',  ( -0.0000000000000000000, -0.0000000000000000000, 1.000000000000000000 ) ) ;
#94 = VECTOR ( 'NONE', #93, 1000.000000000000000 ) ;
#95 = CARTESIAN_POINT ( 'NONE',  ( 12.69999999999999900, 0.0000000000000000000, 7.942321354176521600 ) ) ;
#96 = SURFACE_STYLE_FILL_AREA ( #88 ) ;
#97 = LINE ( 'NONE', #95, #94 ) ;
#98 =( NAMED_UNIT ( * ) PLANE_ANGLE_UNIT ( ) SI_UNIT ( $, .RADIAN. ) );
#99 = DIRECTION ( 'NONE',  ( 0.0000000000000000000, 1.000000000000000000, 0.0000000000000000000 ) ) ;
#100 = DIRECTION ( 'NONE',  ( -1.000000000000000000, 0.0000000000000000000, 0.0000000000000000000 ) ) ;
#101 = AXIS2_PLACEMENT_3D ( 'NONE', #87, #100, #99 ) ;
#102 = SURFACE_SIDE_STYLE ('',( #96 ) ) ;
#103 = AXIS2_PLACEMENT_3D ( 'NONE', #81, #80, #79 ) ;
#104 = CIRCLE ( 'NONE', #103, 12.69999999999999900 ) ;
#105 = PRESENTATION_LAYER_ASSIGNMENT (  '', '', ( #67 ) ) ;
#106 = UNCERTAINTY_MEASURE_WITH_UNIT (LENGTH_MEASURE( 1.000000000000000100E-005 ), #121, 'distance_accuracy_value', 'NONE');
#107 =( NAMED_UNIT ( * ) SI_UNIT ( $, .STERADIAN. ) SOLID_ANGLE_UNIT ( ) );
#108 = CIRCLE ( 'NONE', #86, 12.69999999999999900 ) ;
#109 = AXIS2_PLACEMENT_3D ( 'NONE', #76, #119, #118 ) ;
#110 = CIRCLE ( 'NONE', #109, 38.59000000000000300 ) ;
#111 = SURFACE_STYLE_USAGE ( .BOTH. , #102 ) ;
#112 = COLOUR_RGB ( '',0.9568627450980391500, 0.9490196078431372100, 0.9607843137254902200 ) ;
#113 = CARTESIAN_POINT ( 'NONE',  ( 0.0000000000000000000, 12.69999999999999200, 2.824831916252802600 ) ) ;
#114 = DIRECTION ( 'NONE',  ( 0.0000000000000000000, 0.0000000000000000000, -1.000000000000000000 ) ) ;
#115 = DIRECTION ( 'NONE',  ( 1.000000000000000000, 0.0000000000000000000, 0.0000000000000000000 ) ) ;
#116 = AXIS2_PLACEMENT_3D ( 'NONE', #91, #115, #114 ) ;
#117 = CARTESIAN_POINT ( 'NONE',  ( -12.69999999999999900, 1.555250069354419100E-015, -2.824831916252802600 ) ) ;
#118 = DIRECTION ( 'NONE',  ( -1.224606353822377300E-016, -1.000000000000000000, 0.0000000000000000000 ) ) ;
#119 = DIRECTION ( 'NONE',  ( -1.000000000000000000, 1.224606353822377300E-016, 0.0000000000000000000 ) ) ;
#120 = FACE_OUTER_BOUND ( 'NONE', #5, .T. ) ;
#121 =( LENGTH_UNIT ( ) NAMED_UNIT ( * ) SI_UNIT ( .MILLI., .METRE. ) );
#122 =( GEOMETRIC_REPRESENTATION_CONTEXT ( 3 ) GLOBAL_UNCERTAINTY_ASSIGNED_CONTEXT ( ( #106 ) ) GLOBAL_UNIT_ASSIGNED_CONTEXT ( ( #121, #98, #107 ) ) REPRESENTATION_CONTEXT ( 'NONE', 'WORKASPACE' ) );
#123 = SPHERICAL_SURFACE ( 'NONE', #101, 38.59000000000000300 ) ;
#124 = STYLED_ITEM ( 'NONE', ( #82 ), #6 ) ;
#125 = AXIS2_PLACEMENT_3D ( 'NONE', #131, #132, #127 ) ;
#126 = CARTESIAN_POINT ( 'NONE',  ( 12.69999999999999900, 0.0000000000000000000, 2.824831916252802600 ) ) ;
#127 = DIRECTION ( 'NONE',  ( 1.000000000000000000, 0.0000000000000000000, 0.0000000000000000000 ) ) ;
#128 = CARTESIAN_POINT ( 'NONE',  ( -12.69999999999999900, 1.555250069354419100E-015, 7.942321354176521600 ) ) ;
#129 = LINE ( 'NONE', #128, #60 ) ;
#130 = CARTESIAN_POINT ( 'NONE',  ( 12.69999999999999900, 0.0000000000000000000, -2.824831916252802600 ) ) ;
#131 = CARTESIAN_POINT ( 'NONE',  ( 0.0000000000000000000, 0.0000000000000000000, 2.824831916252802600 ) ) ;
#132 = DIRECTION ( 'NONE',  ( -0.0000000000000000000, -0.0000000000000000000, 1.000000000000000000 ) ) ;
#133 = CIRCLE ( 'NONE', #125, 12.69999999999999900 ) ;
#134 = PLANE ( 'NONE',  #186 ) ;
#135 = SURFACE_STYLE_USAGE ( .BOTH. , #150 ) ;
#136 =( NAMED_UNIT ( * ) SI_UNIT ( $, .STERADIAN. ) SOLID_ANGLE_UNIT ( ) );
#137 = FILL_AREA_STYLE ('',( #138 ) ) ;
#138 = FILL_AREA_STYLE_COLOUR ( '', #139 ) ;
#139 = COLOUR_RGB ( '',0.9568627450980391500, 0.9490196078431372100, 0.9607843137254902200 ) ;
#140 = MECHANICAL_DESIGN_GEOMETRIC_PRESENTATION_REPRESENTATION (  '', ( #194 ), #158 ) ;
#141 = UNCERTAINTY_MEASURE_WITH_UNIT (LENGTH_MEASURE( 1.000000000000000100E-005 ), #149, 'distance_accuracy_value', 'NONE');
#142 = SURFACE_STYLE_FILL_AREA ( #198 ) ;
#143 = STYLED_ITEM ( 'NONE', ( #147 ), #243 ) ;
#144 = DIRECTION ( 'NONE',  ( 1.000000000000000000, 0.0000000000000000000, 0.0000000000000000000 ) ) ;
#145 = DIRECTION ( 'NONE',  ( -0.0000000000000000000, -0.0000000000000000000, 1.000000000000000000 ) ) ;
#146 = CARTESIAN_POINT ( 'NONE',  ( 0.0000000000000000000, 0.0000000000000000000, 7.942321354176521600 ) ) ;
#147 = PRESENTATION_STYLE_ASSIGNMENT (( #135 ) ) ;
#148 = PRESENTATION_LAYER_ASSIGNMENT (  '', '', ( #143 ) ) ;
#149 =( LENGTH_UNIT ( ) NAMED_UNIT ( * ) SI_UNIT ( .MILLI., .METRE. ) );
#150 = SURFACE_SIDE_STYLE ('',( #142 ) ) ;
#151 = COLOUR_RGB ( '',0.9568627450980391500, 0.9490196078431372100, 0.9607843137254902200 ) ;
#152 = DIRECTION ( 'NONE',  ( 1.000000000000000000, 0.0000000000000000000, 0.0000000000000000000 ) ) ;
#153 = DIRECTION ( 'NONE',  ( -0.0000000000000000000, -0.0000000000000000000, 1.000000000000000000 ) ) ;
#154 = AXIS2_PLACEMENT_3D ( 'NONE', #164, #153, #152 ) ;
#155 =( LENGTH_UNIT ( ) NAMED_UNIT ( * ) SI_UNIT ( .MILLI., .METRE. ) );
#156 = AXIS2_PLACEMENT_3D ( 'NONE', #182, #178, #161 ) ;
#157 = COLOUR_RGB ( '',0.9568627450980391500, 0.9490196078431372100, 0.9607843137254902200 ) ;
#158 =( GEOMETRIC_REPRESENTATION_CONTEXT ( 3 ) GLOBAL_UNCERTAINTY_ASSIGNED_CONTEXT ( ( #159 ) ) GLOBAL_UNIT_ASSIGNED_CONTEXT ( ( #155, #168, #172 ) ) REPRESENTATION_CONTEXT ( 'NONE', 'WORKASPACE' ) );
#159 = UNCERTAINTY_MEASURE_WITH_UNIT (LENGTH_MEASURE( 1.000000000000000100E-005 ), #155, 'distance_accuracy_value', 'NONE');
#160 = FACE_OUTER_BOUND ( 'NONE', #244, .T. ) ;
#161 = DIRECTION ( 'NONE',  ( 1.000000000000000000, 0.0000000000000000000, 0.0000000000000000000 ) ) ;
#162 = CARTESIAN_POINT ( 'NONE',  ( 0.0000000000000000000, 0.0000000000000000000, 2.824831916252802600 ) ) ;
#163 = AXIS2_PLACEMENT_3D ( 'NONE', #162, #197, #196 ) ;
#164 = CARTESIAN_POINT ( 'NONE',  ( 0.0000000000000000000, 0.0000000000000000000, -2.824831916252802600 ) ) ;
#165 = DIRECTION ( 'NONE',  ( 1.000000000000000000, 0.0000000000000000000, 0.0000000000000000000 ) ) ;
#166 = DIRECTION ( 'NONE',  ( 0.0000000000000000000, -0.0000000000000000000, 1.000000000000000000 ) ) ;
#167 = FILL_AREA_STYLE_COLOUR ( '', #157 ) ;
#168 =( NAMED_UNIT ( * ) PLANE_ANGLE_UNIT ( ) SI_UNIT ( $, .RADIAN. ) );
#169 = CIRCLE ( 'NONE', #154, 12.69999999999999900 ) ;
#170 = FACE_OUTER_BOUND ( 'NONE', #255, .T. ) ;
#171 = CARTESIAN_POINT ( 'NONE',  ( -12.69999999999999900, 1.555250069354419100E-015, 2.824831916252802600 ) ) ;
#172 =( NAMED_UNIT ( * ) SI_UNIT ( $, .STERADIAN. ) SOLID_ANGLE_UNIT ( ) );
#173 = AXIS2_PLACEMENT_3D ( 'NONE', #146, #145, #144 ) ;
#174 = CYLINDRICAL_SURFACE ( 'NONE', #173, 12.69999999999999900 ) ;
#175 = CIRCLE ( 'NONE', #163, 12.69999999999999900 ) ;
#176 = FACE_OUTER_BOUND ( 'NONE', #250, .T. ) ;
#177 = MECHANICAL_DESIGN_GEOMETRIC_PRESENTATION_REPRESENTATION (  '', ( #143 ), #199 ) ;
#178 = DIRECTION ( 'NONE',  ( -0.0000000000000000000, -0.0000000000000000000, 1.000000000000000000 ) ) ;
#179 = SURFACE_STYLE_USAGE ( .BOTH. , #180 ) ;
#180 = SURFACE_SIDE_STYLE ('',( #181 ) ) ;
#181 = SURFACE_STYLE_FILL_AREA ( #137 ) ;
#182 = CARTESIAN_POINT ( 'NONE',  ( 0.0000000000000000000, 0.0000000000000000000, -2.824831916252802600 ) ) ;
#183 =( NAMED_UNIT ( * ) PLANE_ANGLE_UNIT ( ) SI_UNIT ( $, .RADIAN. ) );
#184 = CIRCLE ( 'NONE', #156, 12.69999999999999900 ) ;
#185 = CARTESIAN_POINT ( 'NONE',  ( 0.0000000000000000000, 6.429395695523603200E-016, -2.824831916252802600 ) ) ;
#186 = AXIS2_PLACEMENT_3D ( 'NONE', #185, #166, #165 ) ;
#187 = PRESENTATION_STYLE_ASSIGNMENT (( #188 ) ) ;
#188 = SURFACE_STYLE_USAGE ( .BOTH. , #189 ) ;
#189 = SURFACE_SIDE_STYLE ('',( #190 ) ) ;
#190 = SURFACE_STYLE_FILL_AREA ( #191 ) ;
#191 = FILL_AREA_STYLE ('',( #192 ) ) ;
#192 = FILL_AREA_STYLE_COLOUR ( '', #151 ) ;
#193 = PRESENTATION_LAYER_ASSIGNMENT (  '', '', ( #194 ) ) ;
#194 = STYLED_ITEM ( 'NONE', ( #195 ), #249 ) ;
#195 = PRESENTATION_STYLE_ASSIGNMENT (( #179 ) ) ;
#196 = DIRECTION ( 'NONE',  ( 1.000000000000000000, 0.0000000000000000000, 0.0000000000000000000 ) ) ;
#197 = DIRECTION ( 'NONE',  ( -0.0000000000000000000, -0.0000000000000000000, 1.000000000000000000 ) ) ;
#198 = FILL_AREA_STYLE ('',( #167 ) ) ;
#199 =( GEOMETRIC_REPRESENTATION_CONTEXT ( 3 ) GLOBAL_UNCERTAINTY_ASSIGNED_CONTEXT ( ( #141 ) ) GLOBAL_UNIT_ASSIGNED_CONTEXT ( ( #149, #183, #136 ) ) REPRESENTATION_CONTEXT ( 'NONE', 'WORKASPACE' ) );
#200 =( NAMED_UNIT ( * ) PLANE_ANGLE_UNIT ( ) SI_UNIT ( $, .RADIAN. ) );
#201 = ADVANCED_BREP_SHAPE_REPRESENTATION ( '4781-E0W', ( #2, #228 ), #202 ) ;
#202 =( GEOMETRIC_REPRESENTATION_CONTEXT ( 3 ) GLOBAL_UNCERTAINTY_ASSIGNED_CONTEXT ( ( #217 ) ) GLOBAL_UNIT_ASSIGNED_CONTEXT ( ( #208, #200, #211 ) ) REPRESENTATION_CONTEXT ( 'NONE', 'WORKASPACE' ) );
#203 = DIRECTION ( 'NONE',  ( -0.0000000000000000000, -0.0000000000000000000, 1.000000000000000000 ) ) ;
#204 =( NAMED_UNIT ( * ) SI_UNIT ( $, .STERADIAN. ) SOLID_ANGLE_UNIT ( ) );
#205 = DIRECTION ( 'NONE',  ( 1.000000000000000000, 0.0000000000000000000, 0.0000000000000000000 ) ) ;
#206 = AXIS2_PLACEMENT_3D ( 'NONE', #216, #203, #205 ) ;
#207 = CYLINDRICAL_SURFACE ( 'NONE', #206, 12.69999999999999900 ) ;
#208 =( LENGTH_UNIT ( ) NAMED_UNIT ( * ) SI_UNIT ( .MILLI., .METRE. ) );
#209 =( LENGTH_UNIT ( ) NAMED_UNIT ( * ) SI_UNIT ( .MILLI., .METRE. ) );
#210 =( GEOMETRIC_REPRESENTATION_CONTEXT ( 3 ) GLOBAL_UNCERTAINTY_ASSIGNED_CONTEXT ( ( #212 ) ) GLOBAL_UNIT_ASSIGNED_CONTEXT ( ( #209, #215, #204 ) ) REPRESENTATION_CONTEXT ( 'NONE', 'WORKASPACE' ) );
#211 =( NAMED_UNIT ( * ) SI_UNIT ( $, .STERADIAN. ) SOLID_ANGLE_UNIT ( ) );
#212 = UNCERTAINTY_MEASURE_WITH_UNIT (LENGTH_MEASURE( 1.000000000000000100E-005 ), #209, 'distance_accuracy_value', 'NONE');
#213 = FILL_AREA_STYLE_COLOUR ( '', #214 ) ;
#214 = COLOUR_RGB ( '',0.7960784313725489700, 0.8235294117647058400, 0.9372549019607843100 ) ;
#215 =( NAMED_UNIT ( * ) PLANE_ANGLE_UNIT ( ) SI_UNIT ( $, .RADIAN. ) );
#216 = CARTESIAN_POINT ( 'NONE',  ( 0.0000000000000000000, 0.0000000000000000000, 7.942321354176521600 ) ) ;
#217 = UNCERTAINTY_MEASURE_WITH_UNIT (LENGTH_MEASURE( 1.000000000000000100E-005 ), #208, 'distance_accuracy_value', 'NONE');
#218 =( LENGTH_UNIT ( ) NAMED_UNIT ( * ) SI_UNIT ( .MILLI., .METRE. ) );
#219 = MECHANICAL_DESIGN_GEOMETRIC_PRESENTATION_REPRESENTATION (  '', ( #229 ), #223 ) ;
#220 = PRESENTATION_STYLE_ASSIGNMENT (( #36 ) ) ;
#221 = UNCERTAINTY_MEASURE_WITH_UNIT (LENGTH_MEASURE( 1.000000000000000100E-005 ), #218, 'distance_accuracy_value', 'NONE');
#222 = DIRECTION ( 'NONE',  ( 0.0000000000000000000, 0.0000000000000000000, 1.000000000000000000 ) ) ;
#223 =( GEOMETRIC_REPRESENTATION_CONTEXT ( 3 ) GLOBAL_UNCERTAINTY_ASSIGNED_CONTEXT ( ( #221 ) ) GLOBAL_UNIT_ASSIGNED_CONTEXT ( ( #218, #226, #224 ) ) REPRESENTATION_CONTEXT ( 'NONE', 'WORKASPACE' ) );
#224 =( NAMED_UNIT ( * ) SI_UNIT ( $, .STERADIAN. ) SOLID_ANGLE_UNIT ( ) );
#225 = PRESENTATION_LAYER_ASSIGNMENT (  '', '', ( #229 ) ) ;
#226 =( NAMED_UNIT ( * ) PLANE_ANGLE_UNIT ( ) SI_UNIT ( $, .RADIAN. ) );
#227 = CARTESIAN_POINT ( 'NONE',  ( 0.0000000000000000000, 0.0000000000000000000, 0.0000000000000000000 ) ) ;
#228 = AXIS2_PLACEMENT_3D ( 'NONE', #227, #222, #230 ) ;
#229 = STYLED_ITEM ( 'NONE', ( #220 ), #201 ) ;
#230 = DIRECTION ( 'NONE',  ( 1.000000000000000000, 0.0000000000000000000, 0.0000000000000000000 ) ) ;
#231 = APPLICATION_CONTEXT ( 'automotive_design' ) ;
#232 = PRODUCT_DEFINITION_SHAPE ( 'NONE', 'NONE',  #237 ) ;
#233 = PRODUCT ( '4781-E0W', '4781-E0W', '', ( #234 ) ) ;
#234 = PRODUCT_CONTEXT ( 'NONE', #231, 'mechanical' ) ;
#235 = APPLICATION_PROTOCOL_DEFINITION ( 'draft international standard', 'automotive_design', 1998, #231 ) ;
#236 = SHAPE_DEFINITION_REPRESENTATION ( #232, #201 ) ;
#237 = PRODUCT_DEFINITION ( 'UNKNOWN', '', #242, #238 ) ;
#238 = PRODUCT_DEFINITION_CONTEXT ( 'detailed design', #240, 'design' ) ;
#239 = APPLICATION_PROTOCOL_DEFINITION ( 'draft international standard', 'automotive_design', 1998, #240 ) ;
#240 = APPLICATION_CONTEXT ( 'automotive_design' ) ;
#241 = PRODUCT_RELATED_PRODUCT_CATEGORY ( 'part', '', ( #233 ) ) ;
#242 = PRODUCT_DEFINITION_FORMATION_WITH_SPECIFIED_SOURCE ( 'ANY', '', #233, .NOT_KNOWN. ) ;
#243 = ADVANCED_FACE ( 'NONE', ( #160 ), #174, .T. ) ;
#244 = EDGE_LOOP ( 'NONE', ( #245, #26, #16, #18, #9 ) ) ;
#245 = ORIENTED_EDGE ( 'NONE', *, *, #42, .T. ) ;
#246 = ORIENTED_EDGE ( 'NONE', *, *, #25, .T. ) ;
#247 = ORIENTED_EDGE ( 'NONE', *, *, #248, .T. ) ;
#248 = EDGE_CURVE ( 'NONE', #29, #12, #175, .T. ) ;
#249 = ADVANCED_FACE ( 'NONE', ( #176 ), #134, .F. ) ;
#250 = EDGE_LOOP ( 'NONE', ( #251, #252 ) ) ;
#251 = ORIENTED_EDGE ( 'NONE', *, *, #42, .F. ) ;
#252 = ORIENTED_EDGE ( 'NONE', *, *, #253, .F. ) ;
#253 = EDGE_CURVE ( 'NONE', #15, #27, #169, .T. ) ;
#254 = ADVANCED_FACE ( 'NONE', ( #170 ), #207, .T. ) ;
#255 = EDGE_LOOP ( 'NONE', ( #256, #257, #258, #259, #260 ) ) ;
#256 = ORIENTED_EDGE ( 'NONE', *, *, #28, .F. ) ;
#257 = ORIENTED_EDGE ( 'NONE', *, *, #253, .T. ) ;
#258 = ORIENTED_EDGE ( 'NONE', *, *, #7, .T. ) ;
#259 = ORIENTED_EDGE ( 'NONE', *, *, #11, .F. ) ;
#260 = ORIENTED_EDGE ( 'NONE', *, *, #248, .F. ) ;
#261 = CLOSED_SHELL ( 'NONE', ( #243, #4, #6, #249, #254 ) ) ;
ENDSEC;
END-ISO-10303-21;
