ISO-10303-21;
HEADER;
FILE_DESCRIPTION (( 'STEP AP203' ),
    '1' );
FILE_NAME ('20177-E0W.STEP',
    '2018-06-01T18:09:03',
    ( 'admin' ),
    ( '' ),
    'SwSTEP 2.0',
    'SolidWorks 2016',
    '' );
FILE_SCHEMA (( 'CONFIG_CONTROL_DESIGN' ));
ENDSEC;

DATA;
#1 = VECTOR ( 'NONE', #256, 39.37007874015748100 ) ;
#2 = EDGE_CURVE ( 'NONE', #220, #330, #180, .T. ) ;
#3 = EDGE_CURVE ( 'NONE', #309, #280, #100, .T. ) ;
#4 = EDGE_CURVE ( 'NONE', #225, #128, #305, .T. ) ;
#5 = DIRECTION ( 'NONE',  ( 0.0000000000000000000, -1.000000000000000000, -1.878145495644180800E-016 ) ) ;
#6 = EDGE_CURVE ( 'NONE', #280, #55, #36, .T. ) ;
#7 = DIRECTION ( 'NONE',  ( 0.0000000000000000000, 1.836909530733566100E-016, -1.000000000000000000 ) ) ;
#8 = SPHERICAL_SURFACE ( 'NONE', #230, 3.394212598425197000 ) ;
#9 = CARTESIAN_POINT ( 'NONE',  ( 0.0000000000000000000, 2.067936161794495200E-017, -0.07308856274740820100 ) ) ;
#10 = EDGE_LOOP ( 'NONE', ( #90, #313, #324, #156 ) ) ;
#11 = FACE_OUTER_BOUND ( 'NONE', #264, .T. ) ;
#12 = CIRCLE ( 'NONE', #300, 0.4944322300693972900 ) ;
#13 = CC_DESIGN_DATE_AND_TIME_ASSIGNMENT ( #178, #153, ( #40 ) ) ;
#14 = CARTESIAN_POINT ( 'NONE',  ( 0.0000000000000000000, -1.409314748703035800E-017, 0.1162104120969813900 ) ) ;
#15 = ORIENTED_EDGE ( 'NONE', *, *, #2, .F. ) ;
#16 = VERTEX_POINT ( 'NONE', #235 ) ;
#17 = EDGE_CURVE ( 'NONE', #68, #220, #185, .T. ) ;
#18 = DIRECTION ( 'NONE',  ( 0.0000000000000000000, 0.0000000000000000000, 1.000000000000000000 ) ) ;
#19 = EDGE_CURVE ( 'NONE', #16, #330, #28, .T. ) ;
#20 = CALENDAR_DATE ( 2018, 1, 6 ) ;
#21 = DIRECTION ( 'NONE',  ( -0.0000000000000000000, -1.836909530733566100E-016, 1.000000000000000000 ) ) ;
#22 = DIRECTION ( 'NONE',  ( 0.0000000000000000000, -0.6529511580193483300, 0.7574000166630523400 ) ) ;
#23 = DIRECTION ( 'NONE',  ( -0.0000000000000000000, -1.836909530733566100E-016, 1.000000000000000000 ) ) ;
#24 = VECTOR ( 'NONE', #192, 39.37007874015748100 ) ;
#25 =( NAMED_UNIT ( * ) PLANE_ANGLE_UNIT ( ) SI_UNIT ( $, .RADIAN. ) );
#26 = CC_DESIGN_SECURITY_CLASSIFICATION ( #40, ( #145 ) ) ;
#27 = EDGE_CURVE ( 'NONE', #309, #55, #136, .T. ) ;
#28 = CIRCLE ( 'NONE', #134, 0.5000000000000001100 ) ;
#29 = FACE_OUTER_BOUND ( 'NONE', #10, .T. ) ;
#30 =( NAMED_UNIT ( * ) SI_UNIT ( $, .STERADIAN. ) SOLID_ANGLE_UNIT ( ) );
#31 =( LENGTH_UNIT ( ) NAMED_UNIT ( * ) SI_UNIT ( $, .METRE. ) );
#32 = EDGE_CURVE ( 'NONE', #68, #111, #67, .T. ) ;
#33 = CARTESIAN_POINT ( 'NONE',  ( 0.0000000000000000000, 0.0000000000000000000, 1.671023789719627800 ) ) ;
#34 = CARTESIAN_POINT ( 'NONE',  ( 0.0000000000000000000, 0.0000000000000000000, 3.276220640113328900 ) ) ;
#35 = COORDINATED_UNIVERSAL_TIME_OFFSET ( 5, 0, .BEHIND. ) ;
#36 = CIRCLE ( 'NONE', #282, 0.4922209950606569200 ) ;
#37 = CARTESIAN_POINT ( 'NONE',  ( 0.0000000000000000000, -0.5000000000000000000, -0.07308856274740828400 ) ) ;
#38 = EDGE_LOOP ( 'NONE', ( #249, #294, #205 ) ) ;
#39 = APPROVAL_DATE_TIME ( #279, #75 ) ;
#40 = SECURITY_CLASSIFICATION ( '', '', #88 ) ;
#41 = AXIS2_PLACEMENT_3D ( 'NONE', #257, #291, #81 ) ;
#42 = CARTESIAN_POINT ( 'NONE',  ( 0.0000000000000000000, -1.307039852198475500E-017, 0.1106426421663786200 ) ) ;
#43 = DIRECTION ( 'NONE',  ( 0.0000000000000000000, 1.000000000000000000, 1.674403104149810500E-016 ) ) ;
#44 = ORIENTED_EDGE ( 'NONE', *, *, #195, .T. ) ;
#45 = CARTESIAN_POINT ( 'NONE',  ( 6.123233995736767300E-017, -0.5000000000000001100, 0.1106426421663785400 ) ) ;
#46 = CC_DESIGN_APPROVAL ( #75, ( #145 ) ) ;
#47 = APPLICATION_CONTEXT ( 'configuration controlled 3d designs of mechanical parts and assemblies' ) ;
#48 = APPROVAL_ROLE ( '' ) ;
#49 = PERSON_AND_ORGANIZATION_ROLE ( 'design_owner' ) ;
#50 = AXIS2_PLACEMENT_3D ( 'NONE', #56, #109, #5 ) ;
#51 = CC_DESIGN_APPROVAL ( #84, ( #40 ) ) ;
#52 = DATE_AND_TIME ( #320, #253 ) ;
#53 = LENGTH_MEASURE_WITH_UNIT ( LENGTH_MEASURE( 0.02539999999999999900 ), #31 );
#54 = AXIS2_PLACEMENT_3D ( 'NONE', #159, #237, #236 ) ;
#55 = VERTEX_POINT ( 'NONE', #312 ) ;
#56 = CARTESIAN_POINT ( 'NONE',  ( 0.0000000000000000000, 2.067936161794495200E-017, -0.07308856274740820100 ) ) ;
#57 = APPLICATION_PROTOCOL_DEFINITION ( 'international standard', 'config_control_design', 1994, #47 ) ;
#58 = ORIENTED_EDGE ( 'NONE', *, *, #191, .F. ) ;
#59 = PRODUCT_DEFINITION ( 'UNKNOWN', '', #145, #74 ) ;
#60 = DIMENSIONAL_EXPONENTS ( 1.000000000000000000, 0.0000000000000000000, 0.0000000000000000000, 0.0000000000000000000, 0.0000000000000000000, 0.0000000000000000000, 0.0000000000000000000 ) ;
#61 = DIRECTION ( 'NONE',  ( -0.0000000000000000000, -1.836909530733566100E-016, 1.000000000000000000 ) ) ;
#62 = CC_DESIGN_APPROVAL ( #255, ( #59 ) ) ;
#63 = PERSON ( 'UNSPECIFIED', 'UNSPECIFIED', 'UNSPECIFIED', ('UNSPECIFIED'), ('UNSPECIFIED'), ('UNSPECIFIED') ) ;
#64 = ORIENTED_EDGE ( 'NONE', *, *, #172, .T. ) ;
#65 = CARTESIAN_POINT ( 'NONE',  ( 0.0000000000000000000, 0.0000000000000000000, 0.0000000000000000000 ) ) ;
#66 = DIRECTION ( 'NONE',  ( 0.0000000000000000000, 0.0000000000000000000, -1.000000000000000000 ) ) ;
#67 = CIRCLE ( 'NONE', #211, 1.631535433070865800 ) ;
#68 = VERTEX_POINT ( 'NONE', #226 ) ;
#69 = SPHERICAL_SURFACE ( 'NONE', #41, 1.631535433070865800 ) ;
#70 = LOCAL_TIME ( 14, 9, 3.000000000000000000, #135 ) ;
#71 = ORIENTED_EDGE ( 'NONE', *, *, #6, .F. ) ;
#72 = CARTESIAN_POINT ( 'NONE',  ( 0.0000000000000000000, 0.4944322300693965700, 0.1162104120969813800 ) ) ;
#73 = CARTESIAN_POINT ( 'NONE',  ( 0.0000000000000000000, -0.5000000000000000000, -0.07308856274740831200 ) ) ;
#74 = DESIGN_CONTEXT ( 'detailed design', #47, 'design' ) ;
#75 = APPROVAL ( #273, 'UNSPECIFIED' ) ;
#76 = ORIENTED_EDGE ( 'NONE', *, *, #168, .T. ) ;
#77 = DIRECTION ( 'NONE',  ( 0.0000000000000000000, 1.000000000000000000, 1.707404996040164000E-016 ) ) ;
#78 = CALENDAR_DATE ( 2018, 1, 6 ) ;
#79 = ADVANCED_FACE ( 'NONE', ( #29 ), #131, .T. ) ;
#80 = FACE_OUTER_BOUND ( 'NONE', #89, .T. ) ;
#81 = DIRECTION ( 'NONE',  ( 0.0000000000000000000, 1.000000000000000000, 1.674403104149810500E-016 ) ) ;
#82 = ORIENTED_EDGE ( 'NONE', *, *, #219, .F. ) ;
#83 = AXIS2_PLACEMENT_3D ( 'NONE', #265, #295, #218 ) ;
#84 = APPROVAL ( #281, 'UNSPECIFIED' ) ;
#85 = PERSON_AND_ORGANIZATION_ROLE ( 'design_supplier' ) ;
#86 = DATE_AND_TIME ( #167, #70 ) ;
#87 = LOCAL_TIME ( 14, 9, 3.000000000000000000, #212 ) ;
#88 = SECURITY_CLASSIFICATION_LEVEL ( 'unclassified' ) ;
#89 = EDGE_LOOP ( 'NONE', ( #270, #101, #283 ) ) ;
#90 = ORIENTED_EDGE ( 'NONE', *, *, #195, .F. ) ;
#91 = DIRECTION ( 'NONE',  ( 1.224646799147353200E-016, 1.000000000000000000, 0.0000000000000000000 ) ) ;
#92 = DIRECTION ( 'NONE',  ( 0.0000000000000000000, 1.000000000000000000, 1.707404996040164000E-016 ) ) ;
#93 = CC_DESIGN_PERSON_AND_ORGANIZATION_ASSIGNMENT ( #288, #49, ( #304 ) ) ;
#94 = AXIS2_PLACEMENT_3D ( 'NONE', #65, #18, #112 ) ;
#95 = CARTESIAN_POINT ( 'NONE',  ( 0.0000000000000000000, 4.156505674239667800E-016, -0.1179919583118678900 ) ) ;
#96 = EDGE_LOOP ( 'NONE', ( #250, #186, #296, #122 ) ) ;
#97 = APPROVAL_ROLE ( '' ) ;
#98 = EDGE_CURVE ( 'NONE', #128, #330, #187, .T. ) ;
#99 = CC_DESIGN_PERSON_AND_ORGANIZATION_ASSIGNMENT ( #306, #163, ( #40 ) ) ;
#100 = CIRCLE ( 'NONE', #224, 3.394212598425197000 ) ;
#101 = ORIENTED_EDGE ( 'NONE', *, *, #27, .T. ) ;
#102 = DIRECTION ( 'NONE',  ( -1.000000000000000000, 0.0000000000000000000, -0.0000000000000000000 ) ) ;
#103 = CC_DESIGN_PERSON_AND_ORGANIZATION_ASSIGNMENT ( #268, #301, ( #145 ) ) ;
#104 = EDGE_CURVE ( 'NONE', #220, #111, #12, .T. ) ;
#105 = FACE_OUTER_BOUND ( 'NONE', #96, .T. ) ;
#106 = DIRECTION ( 'NONE',  ( 1.000000000000000000, -1.224646799147353200E-016, -2.249565377136128300E-032 ) ) ;
#107 = ORIENTED_EDGE ( 'NONE', *, *, #172, .F. ) ;
#108 = ORIENTED_EDGE ( 'NONE', *, *, #6, .T. ) ;
#109 = DIRECTION ( 'NONE',  ( -0.0000000000000000000, -1.836909530733585100E-016, 1.000000000000000000 ) ) ;
#110 = DIRECTION ( 'NONE',  ( 1.000000000000000000, 0.0000000000000000000, 0.0000000000000000000 ) ) ;
#111 = VERTEX_POINT ( 'NONE', #72 ) ;
#112 = DIRECTION ( 'NONE',  ( 1.000000000000000000, 0.0000000000000000000, 0.0000000000000000000 ) ) ;
#113 = ADVANCED_FACE ( 'NONE', ( #299 ), #293, .T. ) ;
#114 = VECTOR ( 'NONE', #229, 39.37007874015748100 ) ;
#115 = AXIS2_PLACEMENT_3D ( 'NONE', #297, #7, #92 ) ;
#116 = DIRECTION ( 'NONE',  ( -0.0000000000000000000, -1.836909530733566100E-016, 1.000000000000000000 ) ) ;
#117 = LINE ( 'NONE', #157, #310 ) ;
#118 = PERSON_AND_ORGANIZATION ( #63, #197 ) ;
#119 = CIRCLE ( 'NONE', #125, 0.5000000000000000000 ) ;
#120 = ORIENTED_EDGE ( 'NONE', *, *, #27, .F. ) ;
#121 = ADVANCED_FACE ( 'NONE', ( #127 ), #69, .F. ) ;
#122 = ORIENTED_EDGE ( 'NONE', *, *, #19, .F. ) ;
#123 = DIRECTION ( 'NONE',  ( 0.0000000000000000000, -1.000000000000000000, -1.878145495644180800E-016 ) ) ;
#124 = DATE_TIME_ROLE ( 'creation_date' ) ;
#125 = AXIS2_PLACEMENT_3D ( 'NONE', #216, #201, #198 ) ;
#126 = PERSON_AND_ORGANIZATION ( #63, #197 ) ;
#127 = FACE_OUTER_BOUND ( 'NONE', #240, .T. ) ;
#128 = VERTEX_POINT ( 'NONE', #73 ) ;
#129 = DATE_AND_TIME ( #78, #196 ) ;
#130 = DIRECTION ( 'NONE',  ( -0.0000000000000000000, -1.836909530733566100E-016, 1.000000000000000000 ) ) ;
#131 = CONICAL_SURFACE ( 'NONE', #215, 0.5000000000000000000, 0.7114743566266169500 ) ;
#132 = ORIENTED_EDGE ( 'NONE', *, *, #104, .T. ) ;
#133 = DIRECTION ( 'NONE',  ( 0.0000000000000000000, -1.000000000000000000, -1.878145495644180800E-016 ) ) ;
#134 = AXIS2_PLACEMENT_3D ( 'NONE', #139, #277, #286 ) ;
#135 = COORDINATED_UNIVERSAL_TIME_OFFSET ( 5, 0, .BEHIND. ) ;
#136 = CIRCLE ( 'NONE', #242, 3.394212598425197000 ) ;
#137 = EDGE_LOOP ( 'NONE', ( #64, #171, #239, #269 ) ) ;
#138 = CARTESIAN_POINT ( 'NONE',  ( 0.0000000000000000000, 0.0000000000000000000, 0.03948835664876188700 ) ) ;
#139 = CARTESIAN_POINT ( 'NONE',  ( 0.0000000000000000000, -1.307039852198475500E-017, 0.1106426421663786200 ) ) ;
#140 = CARTESIAN_POINT ( 'NONE',  ( 0.0000000000000000000, -1.307039852198475500E-017, 0.1106426421663786200 ) ) ;
#141 = ADVANCED_FACE ( 'NONE', ( #326 ), #158, .T. ) ;
#142 = AXIS2_PLACEMENT_3D ( 'NONE', #164, #23, #287 ) ;
#143 = VECTOR ( 'NONE', #285, 39.37007874015748100 ) ;
#144 = AXIS2_PLACEMENT_3D ( 'NONE', #138, #61, #133 ) ;
#145 = PRODUCT_DEFINITION_FORMATION_WITH_SPECIFIED_SOURCE ( 'ANY', '', #304, .NOT_KNOWN. ) ;
#146 = APPLICATION_CONTEXT ( 'configuration controlled 3d designs of mechanical parts and assemblies' ) ;
#147 = ADVANCED_BREP_SHAPE_REPRESENTATION ( '20177-E0W', ( #206, #94 ), #315 ) ;
#148 = ADVANCED_FACE ( 'NONE', ( #199 ), #278, .F. ) ;
#149 = CARTESIAN_POINT ( 'NONE',  ( 0.0000000000000000000, 0.5000000000000001100, 0.1106426421663787000 ) ) ;
#150 = ORIENTED_EDGE ( 'NONE', *, *, #191, .T. ) ;
#151 = DIRECTION ( 'NONE',  ( -0.0000000000000000000, -1.836909530733585100E-016, 1.000000000000000000 ) ) ;
#152 = ADVANCED_FACE ( 'NONE', ( #155 ), #177, .T. ) ;
#153 = DATE_TIME_ROLE ( 'classification_date' ) ;
#154 = CIRCLE ( 'NONE', #200, 0.5000000000000001100 ) ;
#155 = FACE_OUTER_BOUND ( 'NONE', #174, .T. ) ;
#156 = ORIENTED_EDGE ( 'NONE', *, *, #4, .F. ) ;
#157 = CARTESIAN_POINT ( 'NONE',  ( 6.123233995736766000E-017, 0.5000000000000000000, 0.03948835664876198400 ) ) ;
#158 = CYLINDRICAL_SURFACE ( 'NONE', #142, 0.5000000000000000000 ) ;
#159 = CARTESIAN_POINT ( 'NONE',  ( 0.0000000000000000000, 0.0000000000000000000, 1.671023789719627800 ) ) ;
#160 = APPROVAL_PERSON_ORGANIZATION ( #175, #255, #97 ) ;
#161 = CIRCLE ( 'NONE', #202, 0.4922209950606569200 ) ;
#162 = ORIENTED_EDGE ( 'NONE', *, *, #184, .F. ) ;
#163 = PERSON_AND_ORGANIZATION_ROLE ( 'classification_officer' ) ;
#164 = CARTESIAN_POINT ( 'NONE',  ( 0.0000000000000000000, 0.0000000000000000000, 0.03948835664876188700 ) ) ;
#165 = EDGE_CURVE ( 'NONE', #55, #280, #161, .T. ) ;
#166 = CARTESIAN_POINT ( 'NONE',  ( 0.0000000000000000000, 6.168953106465964300E-016, -0.08211193057257906700 ) ) ;
#167 = CALENDAR_DATE ( 2018, 1, 6 ) ;
#168 = EDGE_CURVE ( 'NONE', #330, #16, #154, .T. ) ;
#169 = PERSON_AND_ORGANIZATION_ROLE ( 'creator' ) ;
#170 = DIRECTION ( 'NONE',  ( 1.000000000000000000, 0.0000000000000000000, 0.0000000000000000000 ) ) ;
#171 = ORIENTED_EDGE ( 'NONE', *, *, #328, .T. ) ;
#172 = EDGE_CURVE ( 'NONE', #128, #225, #119, .T. ) ;
#173 = UNCERTAINTY_MEASURE_WITH_UNIT (LENGTH_MEASURE( 1.000000000000000100E-005 ), #176, 'distance_accuracy_value', 'NONE');
#174 = EDGE_LOOP ( 'NONE', ( #71, #44, #107, #162 ) ) ;
#175 = PERSON_AND_ORGANIZATION ( #63, #197 ) ;
#176 =( CONVERSION_BASED_UNIT ( 'INCH', #53 ) LENGTH_UNIT ( ) NAMED_UNIT ( #60 ) );
#177 = CONICAL_SURFACE ( 'NONE', #50, 0.5000000000000000000, 0.7114743566266169500 ) ;
#178 = DATE_AND_TIME ( #245, #214 ) ;
#179 = VECTOR ( 'NONE', #22, 39.37007874015748100 ) ;
#180 = LINE ( 'NONE', #45, #114 ) ;
#181 = ORIENTED_EDGE ( 'NONE', *, *, #32, .F. ) ;
#182 = CARTESIAN_POINT ( 'NONE',  ( 6.123233995736764800E-017, 0.5000000000000000000, -0.07308856274740810300 ) ) ;
#183 = CIRCLE ( 'NONE', #302, 0.4944322300693972900 ) ;
#184 = EDGE_CURVE ( 'NONE', #55, #128, #213, .T. ) ;
#185 = CIRCLE ( 'NONE', #54, 1.631535433070865800 ) ;
#186 = ORIENTED_EDGE ( 'NONE', *, *, #4, .T. ) ;
#187 = LINE ( 'NONE', #323, #143 ) ;
#188 = ORIENTED_EDGE ( 'NONE', *, *, #19, .T. ) ;
#189 = DIRECTION ( 'NONE',  ( 1.000000000000000000, 0.0000000000000000000, 0.0000000000000000000 ) ) ;
#190 = DIRECTION ( 'NONE',  ( 0.0000000000000000000, -1.000000000000000000, -1.707404996040164000E-016 ) ) ;
#191 = EDGE_CURVE ( 'NONE', #111, #16, #267, .T. ) ;
#192 = DIRECTION ( 'NONE',  ( 7.996345456679522500E-017, 0.6529511580193481100, 0.7574000166630525700 ) ) ;
#193 = CARTESIAN_POINT ( 'NONE',  ( -6.055048479497742100E-017, -0.4944322300693962400, 0.1162104120969813000 ) ) ;
#194 = DIRECTION ( 'NONE',  ( 0.0000000000000000000, -1.000000000000000000, -1.726631975225924500E-016 ) ) ;
#195 = EDGE_CURVE ( 'NONE', #280, #225, #238, .T. ) ;
#196 = LOCAL_TIME ( 14, 9, 3.000000000000000000, #35 ) ;
#197 = ORGANIZATION ( 'UNSPECIFIED', 'UNSPECIFIED', '' ) ;
#198 = DIRECTION ( 'NONE',  ( 0.0000000000000000000, -1.000000000000000000, -1.878145495644180800E-016 ) ) ;
#199 = FACE_OUTER_BOUND ( 'NONE', #38, .T. ) ;
#200 = AXIS2_PLACEMENT_3D ( 'NONE', #42, #21, #190 ) ;
#201 = DIRECTION ( 'NONE',  ( -0.0000000000000000000, -1.836909530733585100E-016, 1.000000000000000000 ) ) ;
#202 = AXIS2_PLACEMENT_3D ( 'NONE', #166, #263, #251 ) ;
#203 = COORDINATED_UNIVERSAL_TIME_OFFSET ( 5, 0, .BEHIND. ) ;
#204 = CC_DESIGN_PERSON_AND_ORGANIZATION_ASSIGNMENT ( #329, #85, ( #145 ) ) ;
#205 = ORIENTED_EDGE ( 'NONE', *, *, #219, .T. ) ;
#206 = MANIFOLD_SOLID_BREP ( '20177-001-1-solid1', #232 ) ;
#207 = CARTESIAN_POINT ( 'NONE',  ( 0.0000000000000000000, 0.0000000000000000000, 3.276220640113328900 ) ) ;
#208 = AXIS2_PLACEMENT_3D ( 'NONE', #140, #231, #77 ) ;
#209 = MECHANICAL_CONTEXT ( 'NONE', #146, 'mechanical' ) ;
#210 = APPROVAL_PERSON_ORGANIZATION ( #118, #75, #48 ) ;
#211 = AXIS2_PLACEMENT_3D ( 'NONE', #260, #170, #66 ) ;
#212 = COORDINATED_UNIVERSAL_TIME_OFFSET ( 5, 0, .BEHIND. ) ;
#213 = LINE ( 'NONE', #37, #179 ) ;
#214 = LOCAL_TIME ( 14, 9, 3.000000000000000000, #261 ) ;
#215 = AXIS2_PLACEMENT_3D ( 'NONE', #9, #151, #123 ) ;
#216 = CARTESIAN_POINT ( 'NONE',  ( 0.0000000000000000000, 2.067936161794493300E-017, -0.07308856274740821400 ) ) ;
#217 = ORIENTED_EDGE ( 'NONE', *, *, #2, .T. ) ;
#218 = DIRECTION ( 'NONE',  ( 0.0000000000000000000, -1.000000000000000000, -1.878145495644180800E-016 ) ) ;
#219 = EDGE_CURVE ( 'NONE', #111, #220, #183, .T. ) ;
#220 = VERTEX_POINT ( 'NONE', #193 ) ;
#221 = EDGE_LOOP ( 'NONE', ( #254, #217, #76, #58 ) ) ;
#222 = CONICAL_SURFACE ( 'NONE', #115, 0.5000000000000001100, 0.7853981633974452800 ) ;
#223 = DIRECTION ( 'NONE',  ( 0.0000000000000000000, 0.0000000000000000000, 1.000000000000000000 ) ) ;
#224 = AXIS2_PLACEMENT_3D ( 'NONE', #34, #106, #91 ) ;
#225 = VERTEX_POINT ( 'NONE', #284 ) ;
#226 = CARTESIAN_POINT ( 'NONE',  ( 0.0000000000000000000, 3.996010309640252900E-016, 0.03948835664876190100 ) ) ;
#227 = PERSON_AND_ORGANIZATION ( #63, #197 ) ;
#228 = DIRECTION ( 'NONE',  ( 0.0000000000000000000, -1.000000000000000000, -1.609709418279662700E-016 ) ) ;
#229 = DIRECTION ( 'NONE',  ( 8.659560562354907000E-017, -0.7071067811865452400, -0.7071067811865497900 ) ) ;
#230 = AXIS2_PLACEMENT_3D ( 'NONE', #252, #110, #228 ) ;
#231 = DIRECTION ( 'NONE',  ( 0.0000000000000000000, 1.836909530733566100E-016, -1.000000000000000000 ) ) ;
#232 = CLOSED_SHELL ( 'NONE', ( #152, #325, #141, #113, #121, #148, #272, #246, #321, #79 ) ) ;
#233 = PRODUCT_RELATED_PRODUCT_CATEGORY ( 'detail', '', ( #304 ) ) ;
#234 = CARTESIAN_POINT ( 'NONE',  ( 6.027968660741618400E-017, 0.4922209950606600800, -0.08211193057257863700 ) ) ;
#235 = CARTESIAN_POINT ( 'NONE',  ( 6.123233995736767300E-017, 0.5000000000000001100, 0.1106426421663787000 ) ) ;
#236 = DIRECTION ( 'NONE',  ( -1.224646799147353500E-016, -1.000000000000000000, 0.0000000000000000000 ) ) ;
#237 = DIRECTION ( 'NONE',  ( -1.000000000000000000, 1.224646799147353200E-016, 2.249565377136128300E-032 ) ) ;
#238 = LINE ( 'NONE', #182, #24 ) ;
#239 = ORIENTED_EDGE ( 'NONE', *, *, #168, .F. ) ;
#240 = EDGE_LOOP ( 'NONE', ( #181, #276, #132 ) ) ;
#241 = APPLICATION_PROTOCOL_DEFINITION ( 'international standard', 'config_control_design', 1994, #146 ) ;
#242 = AXIS2_PLACEMENT_3D ( 'NONE', #298, #102, #223 ) ;
#243 = CARTESIAN_POINT ( 'NONE',  ( 0.0000000000000000000, -1.409314748703035800E-017, 0.1162104120969813900 ) ) ;
#244 = CARTESIAN_POINT ( 'NONE',  ( 0.0000000000000000000, 6.168953106465964300E-016, -0.08211193057257906700 ) ) ;
#245 = CALENDAR_DATE ( 2018, 1, 6 ) ;
#246 = ADVANCED_FACE ( 'NONE', ( #105 ), #289, .T. ) ;
#247 = CARTESIAN_POINT ( 'NONE',  ( 0.0000000000000000000, -0.5000000000000001100, 0.1106426421663785400 ) ) ;
#248 = DIRECTION ( 'NONE',  ( -1.000000000000000000, 0.0000000000000000000, 0.0000000000000000000 ) ) ;
#249 = ORIENTED_EDGE ( 'NONE', *, *, #17, .F. ) ;
#250 = ORIENTED_EDGE ( 'NONE', *, *, #328, .F. ) ;
#251 = DIRECTION ( 'NONE',  ( 0.0000000000000000000, -1.000000000000000000, -1.734388631502562400E-016 ) ) ;
#252 = CARTESIAN_POINT ( 'NONE',  ( 0.0000000000000000000, 0.0000000000000000000, 3.276220640113328900 ) ) ;
#253 = LOCAL_TIME ( 14, 9, 3.000000000000000000, #203 ) ;
#254 = ORIENTED_EDGE ( 'NONE', *, *, #104, .F. ) ;
#255 = APPROVAL ( #259, 'UNSPECIFIED' ) ;
#256 = DIRECTION ( 'NONE',  ( 0.0000000000000000000, 0.7071067811865454600, -0.7071067811865495700 ) ) ;
#257 = CARTESIAN_POINT ( 'NONE',  ( 0.0000000000000000000, 0.0000000000000000000, 1.671023789719627800 ) ) ;
#258 = CC_DESIGN_DATE_AND_TIME_ASSIGNMENT ( #129, #124, ( #59 ) ) ;
#259 = APPROVAL_STATUS ( 'not_yet_approved' ) ;
#260 = CARTESIAN_POINT ( 'NONE',  ( 0.0000000000000000000, 0.0000000000000000000, 1.671023789719627800 ) ) ;
#261 = COORDINATED_UNIVERSAL_TIME_OFFSET ( 5, 0, .BEHIND. ) ;
#262 = DIRECTION ( 'NONE',  ( 0.0000000000000000000, -1.000000000000000000, -1.726631975225924500E-016 ) ) ;
#263 = DIRECTION ( 'NONE',  ( 0.0000000000000000000, 1.836909530733585100E-016, -1.000000000000000000 ) ) ;
#264 = EDGE_LOOP ( 'NONE', ( #15, #82, #150, #188 ) ) ;
#265 = CARTESIAN_POINT ( 'NONE',  ( 0.0000000000000000000, 2.067936161794493300E-017, -0.07308856274740821400 ) ) ;
#266 = PRODUCT_DEFINITION_SHAPE ( 'NONE', 'NONE',  #59 ) ;
#267 = LINE ( 'NONE', #149, #1 ) ;
#268 = PERSON_AND_ORGANIZATION ( #63, #197 ) ;
#269 = ORIENTED_EDGE ( 'NONE', *, *, #98, .F. ) ;
#270 = ORIENTED_EDGE ( 'NONE', *, *, #3, .F. ) ;
#271 = DIRECTION ( 'NONE',  ( 0.0000000000000000000, 1.836909530733585100E-016, -1.000000000000000000 ) ) ;
#272 = ADVANCED_FACE ( 'NONE', ( #80 ), #8, .T. ) ;
#273 = APPROVAL_STATUS ( 'not_yet_approved' ) ;
#274 = APPROVAL_DATE_TIME ( #86, #255 ) ;
#275 = EDGE_LOOP ( 'NONE', ( #120, #307, #108 ) ) ;
#276 = ORIENTED_EDGE ( 'NONE', *, *, #17, .T. ) ;
#277 = DIRECTION ( 'NONE',  ( -0.0000000000000000000, -1.836909530733566100E-016, 1.000000000000000000 ) ) ;
#278 = SPHERICAL_SURFACE ( 'NONE', #319, 1.631535433070865800 ) ;
#279 = DATE_AND_TIME ( #20, #87 ) ;
#280 = VERTEX_POINT ( 'NONE', #234 ) ;
#281 = APPROVAL_STATUS ( 'not_yet_approved' ) ;
#282 = AXIS2_PLACEMENT_3D ( 'NONE', #244, #271, #292 ) ;
#283 = ORIENTED_EDGE ( 'NONE', *, *, #165, .T. ) ;
#284 = CARTESIAN_POINT ( 'NONE',  ( 6.123233995736766000E-017, 0.5000000000000000000, -0.07308856274740811700 ) ) ;
#285 = DIRECTION ( 'NONE',  ( -0.0000000000000000000, -1.836909530733566100E-016, 1.000000000000000000 ) ) ;
#286 = DIRECTION ( 'NONE',  ( 0.0000000000000000000, -1.000000000000000000, -1.707404996040164000E-016 ) ) ;
#287 = DIRECTION ( 'NONE',  ( 0.0000000000000000000, -1.000000000000000000, -1.878145495644180800E-016 ) ) ;
#288 = PERSON_AND_ORGANIZATION ( #63, #197 ) ;
#289 = CYLINDRICAL_SURFACE ( 'NONE', #144, 0.5000000000000000000 ) ;
#290 = DIRECTION ( 'NONE',  ( -0.0000000000000000000, -1.836909530733566100E-016, 1.000000000000000000 ) ) ;
#291 = DIRECTION ( 'NONE',  ( -1.000000000000000000, 0.0000000000000000000, 0.0000000000000000000 ) ) ;
#292 = DIRECTION ( 'NONE',  ( 0.0000000000000000000, -1.000000000000000000, -1.734388631502562400E-016 ) ) ;
#293 = SPHERICAL_SURFACE ( 'NONE', #327, 3.394212598425197000 ) ;
#294 = ORIENTED_EDGE ( 'NONE', *, *, #32, .T. ) ;
#295 = DIRECTION ( 'NONE',  ( -0.0000000000000000000, -1.836909530733585100E-016, 1.000000000000000000 ) ) ;
#296 = ORIENTED_EDGE ( 'NONE', *, *, #98, .T. ) ;
#297 = CARTESIAN_POINT ( 'NONE',  ( 0.0000000000000000000, -1.307039852198475500E-017, 0.1106426421663786200 ) ) ;
#298 = CARTESIAN_POINT ( 'NONE',  ( 0.0000000000000000000, 0.0000000000000000000, 3.276220640113328900 ) ) ;
#299 = FACE_OUTER_BOUND ( 'NONE', #275, .T. ) ;
#300 = AXIS2_PLACEMENT_3D ( 'NONE', #243, #290, #262 ) ;
#301 = PERSON_AND_ORGANIZATION_ROLE ( 'creator' ) ;
#302 = AXIS2_PLACEMENT_3D ( 'NONE', #14, #130, #194 ) ;
#303 = APPROVAL_DATE_TIME ( #52, #84 ) ;
#304 = PRODUCT ( '20177-E0W', '20177-E0W', '', ( #209 ) ) ;
#305 = CIRCLE ( 'NONE', #83, 0.5000000000000000000 ) ;
#306 = PERSON_AND_ORGANIZATION ( #63, #197 ) ;
#307 = ORIENTED_EDGE ( 'NONE', *, *, #3, .T. ) ;
#308 = APPROVAL_ROLE ( '' ) ;
#309 = VERTEX_POINT ( 'NONE', #95 ) ;
#310 = VECTOR ( 'NONE', #116, 39.37007874015748100 ) ;
#311 = CC_DESIGN_PERSON_AND_ORGANIZATION_ASSIGNMENT ( #126, #169, ( #59 ) ) ;
#312 = CARTESIAN_POINT ( 'NONE',  ( 0.0000000000000000000, -0.4922209950606588600, -0.08211193057257872000 ) ) ;
#313 = ORIENTED_EDGE ( 'NONE', *, *, #165, .F. ) ;
#314 = FACE_OUTER_BOUND ( 'NONE', #221, .T. ) ;
#315 =( GEOMETRIC_REPRESENTATION_CONTEXT ( 3 ) GLOBAL_UNCERTAINTY_ASSIGNED_CONTEXT ( ( #173 ) ) GLOBAL_UNIT_ASSIGNED_CONTEXT ( ( #176, #25, #30 ) ) REPRESENTATION_CONTEXT ( 'NONE', 'WORKASPACE' ) );
#316 = APPROVAL_PERSON_ORGANIZATION ( #227, #84, #308 ) ;
#317 = DIRECTION ( 'NONE',  ( 0.0000000000000000000, -1.000000000000000000, -1.609709418279662700E-016 ) ) ;
#318 = CONICAL_SURFACE ( 'NONE', #208, 0.5000000000000001100, 0.7853981633974452800 ) ;
#319 = AXIS2_PLACEMENT_3D ( 'NONE', #33, #248, #43 ) ;
#320 = CALENDAR_DATE ( 2018, 1, 6 ) ;
#321 = ADVANCED_FACE ( 'NONE', ( #11 ), #318, .T. ) ;
#322 = SHAPE_DEFINITION_REPRESENTATION ( #266, #147 ) ;
#323 = CARTESIAN_POINT ( 'NONE',  ( 0.0000000000000000000, -0.5000000000000000000, 0.03948835664876179000 ) ) ;
#324 = ORIENTED_EDGE ( 'NONE', *, *, #184, .T. ) ;
#325 = ADVANCED_FACE ( 'NONE', ( #314 ), #222, .T. ) ;
#326 = FACE_OUTER_BOUND ( 'NONE', #137, .T. ) ;
#327 = AXIS2_PLACEMENT_3D ( 'NONE', #207, #189, #317 ) ;
#328 = EDGE_CURVE ( 'NONE', #225, #16, #117, .T. ) ;
#329 = PERSON_AND_ORGANIZATION ( #63, #197 ) ;
#330 = VERTEX_POINT ( 'NONE', #247 ) ;
ENDSEC;
END-ISO-10303-21;
