ISO-10303-21;
HEADER;
FILE_DESCRIPTION (( 'STEP AP203' ),
    '1' );
FILE_NAME ('Web Model 49626.STEP',
    '2017-01-31T15:23:10',
    ( '' ),
    ( '' ),
    'SwSTEP 2.0',
    'SolidWorks 2016',
    '' );
FILE_SCHEMA (( 'CONFIG_CONTROL_DESIGN' ));
ENDSEC;

DATA;
#1 = VERTEX_POINT ( 'NONE', #15 ) ;
#2 = LINE ( 'NONE', #160, #37 ) ;
#3 = PERSON_AND_ORGANIZATION ( #147, #85 ) ;
#4 = FACE_OUTER_BOUND ( 'NONE', #127, .T. ) ;
#5 = VECTOR ( 'NONE', #48, 1000.000000000000000 ) ;
#6 = AXIS2_PLACEMENT_3D ( 'NONE', #82, #210, #227 ) ;
#7 = PLANE ( 'NONE',  #139 ) ;
#8 = CC_DESIGN_APPROVAL ( #200, ( #129 ) ) ;
#9 = DIRECTION ( 'NONE',  ( 0.0000000000000000000, -1.000000000000000000, 0.0000000000000000000 ) ) ;
#10 = PERSON_AND_ORGANIZATION ( #147, #85 ) ;
#11 = COORDINATED_UNIVERSAL_TIME_OFFSET ( 5, 0, .BEHIND. ) ;
#12 = EDGE_CURVE ( 'NONE', #189, #208, #92, .T. ) ;
#13 = LINE ( 'NONE', #146, #110 ) ;
#14 = FACE_OUTER_BOUND ( 'NONE', #161, .T. ) ;
#15 = CARTESIAN_POINT ( 'NONE',  ( 17.50000000000000000, 17.50000000000000000, 3.000000000000000000 ) ) ;
#16 = PLANE ( 'NONE',  #69 ) ;
#17 = VERTEX_POINT ( 'NONE', #218 ) ;
#18 = EDGE_CURVE ( 'NONE', #155, #81, #197, .T. ) ;
#19 = APPROVAL_DATE_TIME ( #150, #221 ) ;
#20 = CARTESIAN_POINT ( 'NONE',  ( 0.0000000000000000000, 0.0000000000000000000, 0.0000000000000000000 ) ) ;
#21 = PERSON_AND_ORGANIZATION_ROLE ( 'design_owner' ) ;
#22 = PRODUCT_RELATED_PRODUCT_CATEGORY ( 'detail', '', ( #73 ) ) ;
#23 = DIRECTION ( 'NONE',  ( -1.000000000000000000, -0.0000000000000000000, -0.0000000000000000000 ) ) ;
#24 = VERTEX_POINT ( 'NONE', #112 ) ;
#25 = ADVANCED_FACE ( 'NONE', ( #4 ), #16, .F. ) ;
#26 = VECTOR ( 'NONE', #104, 1000.000000000000000 ) ;
#27 = DESIGN_CONTEXT ( 'detailed design', #77, 'design' ) ;
#28 = CARTESIAN_POINT ( 'NONE',  ( -17.50000000000000000, -17.50000000000000000, 3.000000000000000000 ) ) ;
#29 = DIRECTION ( 'NONE',  ( -1.000000000000000000, -0.0000000000000000000, -0.0000000000000000000 ) ) ;
#30 = EDGE_CURVE ( 'NONE', #81, #17, #230, .T. ) ;
#31 = FACE_OUTER_BOUND ( 'NONE', #70, .T. ) ;
#32 = LINE ( 'NONE', #106, #88 ) ;
#33 = LOCAL_TIME ( 10, 23, 10.00000000000000000, #229 ) ;
#34 = CARTESIAN_POINT ( 'NONE',  ( -17.50000000000000000, 17.50000000000000000, 3.000000000000000000 ) ) ;
#35 = ORIENTED_EDGE ( 'NONE', *, *, #12, .F. ) ;
#36 = CARTESIAN_POINT ( 'NONE',  ( 17.50000000000000000, 17.50000000000000000, 3.000000000000000000 ) ) ;
#37 = VECTOR ( 'NONE', #84, 1000.000000000000000 ) ;
#38 = DATE_AND_TIME ( #156, #89 ) ;
#39 = DATE_TIME_ROLE ( 'creation_date' ) ;
#40 = LINE ( 'NONE', #193, #228 ) ;
#41 = CALENDAR_DATE ( 2017, 31, 1 ) ;
#42 = VECTOR ( 'NONE', #192, 1000.000000000000000 ) ;
#43 = DIRECTION ( 'NONE',  ( 1.000000000000000000, 0.0000000000000000000, 0.0000000000000000000 ) ) ;
#44 = ORIENTED_EDGE ( 'NONE', *, *, #18, .T. ) ;
#45 = DIRECTION ( 'NONE',  ( -0.0000000000000000000, 0.0000000000000000000, 1.000000000000000000 ) ) ;
#46 = APPROVAL ( #152, 'UNSPECIFIED' ) ;
#47 = DIRECTION ( 'NONE',  ( 1.000000000000000000, 0.0000000000000000000, 0.0000000000000000000 ) ) ;
#48 = DIRECTION ( 'NONE',  ( -0.0000000000000000000, -0.0000000000000000000, -1.000000000000000000 ) ) ;
#49 = ORIENTED_EDGE ( 'NONE', *, *, #18, .F. ) ;
#50 = ORIENTED_EDGE ( 'NONE', *, *, #30, .T. ) ;
#51 = VECTOR ( 'NONE', #29, 1000.000000000000000 ) ;
#52 = LOCAL_TIME ( 10, 23, 10.00000000000000000, #134 ) ;
#53 = APPROVAL_ROLE ( '' ) ;
#54 = EDGE_CURVE ( 'NONE', #81, #189, #13, .T. ) ;
#55 = APPLICATION_PROTOCOL_DEFINITION ( 'international standard', 'config_control_design', 1994, #170 ) ;
#56 = PRODUCT_DEFINITION_SHAPE ( 'NONE', 'NONE',  #184 ) ;
#57 = CC_DESIGN_DATE_AND_TIME_ASSIGNMENT ( #38, #39, ( #184 ) ) ;
#58 = ORIENTED_EDGE ( 'NONE', *, *, #215, .F. ) ;
#59 = ADVANCED_FACE ( 'NONE', ( #14 ), #90, .F. ) ;
#60 = COORDINATED_UNIVERSAL_TIME_OFFSET ( 5, 0, .BEHIND. ) ;
#61 = APPROVAL_PERSON_ORGANIZATION ( #10, #46, #53 ) ;
#62 = CC_DESIGN_APPROVAL ( #46, ( #184 ) ) ;
#63 = CARTESIAN_POINT ( 'NONE',  ( -17.50000000000000000, 17.50000000000000000, 3.000000000000000000 ) ) ;
#64 = EDGE_LOOP ( 'NONE', ( #83, #234, #58, #108 ) ) ;
#65 = ORIENTED_EDGE ( 'NONE', *, *, #203, .T. ) ;
#66 = CARTESIAN_POINT ( 'NONE',  ( 17.50000000000000000, 17.50000000000000000, 3.000000000000000000 ) ) ;
#67 = EDGE_CURVE ( 'NONE', #1, #217, #157, .T. ) ;
#68 = PERSON_AND_ORGANIZATION ( #147, #85 ) ;
#69 = AXIS2_PLACEMENT_3D ( 'NONE', #164, #45, #47 ) ;
#70 = EDGE_LOOP ( 'NONE', ( #226, #173, #144, #131 ) ) ;
#71 = CC_DESIGN_PERSON_AND_ORGANIZATION_ASSIGNMENT ( #219, #74, ( #184 ) ) ;
#72 = ORIENTED_EDGE ( 'NONE', *, *, #124, .T. ) ;
#73 = PRODUCT ( 'Web Model 49626', 'Web Model 49626', '', ( #135 ) ) ;
#74 = PERSON_AND_ORGANIZATION_ROLE ( 'creator' ) ;
#75 = FACE_OUTER_BOUND ( 'NONE', #64, .T. ) ;
#76 = LOCAL_TIME ( 10, 23, 10.00000000000000000, #11 ) ;
#77 = APPLICATION_CONTEXT ( 'configuration controlled 3d designs of mechanical parts and assemblies' ) ;
#78 = CC_DESIGN_PERSON_AND_ORGANIZATION_ASSIGNMENT ( #3, #207, ( #129 ) ) ;
#79 = ORIENTED_EDGE ( 'NONE', *, *, #102, .F. ) ;
#80 = APPROVAL_PERSON_ORGANIZATION ( #68, #200, #172 ) ;
#81 = VERTEX_POINT ( 'NONE', #201 ) ;
#82 = CARTESIAN_POINT ( 'NONE',  ( -17.50000000000000000, 17.50000000000000000, 3.000000000000000000 ) ) ;
#83 = ORIENTED_EDGE ( 'NONE', *, *, #168, .T. ) ;
#84 = DIRECTION ( 'NONE',  ( -0.0000000000000000000, 1.000000000000000000, -0.0000000000000000000 ) ) ;
#85 = ORGANIZATION ( 'UNSPECIFIED', 'UNSPECIFIED', '' ) ;
#86 = EDGE_CURVE ( 'NONE', #17, #208, #213, .T. ) ;
#87 = FACE_OUTER_BOUND ( 'NONE', #167, .T. ) ;
#88 = VECTOR ( 'NONE', #23, 1000.000000000000000 ) ;
#89 = LOCAL_TIME ( 10, 23, 10.00000000000000000, #225 ) ;
#90 = PLANE ( 'NONE',  #111 ) ;
#91 = SECURITY_CLASSIFICATION ( '', '', #133 ) ;
#92 = LINE ( 'NONE', #163, #191 ) ;
#93 = DATE_AND_TIME ( #209, #33 ) ;
#94 = MANIFOLD_SOLID_BREP ( 'Extrude1', #212 ) ;
#95 = DIRECTION ( 'NONE',  ( 0.0000000000000000000, -0.0000000000000000000, 1.000000000000000000 ) ) ;
#96 = EDGE_CURVE ( 'NONE', #155, #24, #198, .T. ) ;
#97 = PERSON_AND_ORGANIZATION_ROLE ( 'design_supplier' ) ;
#98 = CC_DESIGN_SECURITY_CLASSIFICATION ( #91, ( #129 ) ) ;
#99 = ADVANCED_FACE ( 'NONE', ( #75 ), #141, .F. ) ;
#100 = ORIENTED_EDGE ( 'NONE', *, *, #96, .F. ) ;
#101 = SHAPE_DEFINITION_REPRESENTATION ( #56, #137 ) ;
#102 = EDGE_CURVE ( 'NONE', #217, #24, #117, .T. ) ;
#103 = VECTOR ( 'NONE', #182, 1000.000000000000000 ) ;
#104 = DIRECTION ( 'NONE',  ( -0.0000000000000000000, -0.0000000000000000000, -1.000000000000000000 ) ) ;
#105 = CARTESIAN_POINT ( 'NONE',  ( -17.50000000000000000, -17.50000000000000000, 0.0000000000000000000 ) ) ;
#106 = CARTESIAN_POINT ( 'NONE',  ( -17.50000000000000000, 17.50000000000000000, 3.000000000000000000 ) ) ;
#107 = DIRECTION ( 'NONE',  ( -1.000000000000000000, 0.0000000000000000000, 0.0000000000000000000 ) ) ;
#108 = ORIENTED_EDGE ( 'NONE', *, *, #86, .T. ) ;
#109 = APPROVAL_PERSON_ORGANIZATION ( #196, #221, #132 ) ;
#110 = VECTOR ( 'NONE', #114, 1000.000000000000000 ) ;
#111 = AXIS2_PLACEMENT_3D ( 'NONE', #214, #166, #216 ) ;
#112 = CARTESIAN_POINT ( 'NONE',  ( -17.50000000000000000, 17.50000000000000000, 0.0000000000000000000 ) ) ;
#113 = CARTESIAN_POINT ( 'NONE',  ( 17.50000000000000000, -17.50000000000000000, 0.0000000000000000000 ) ) ;
#114 = DIRECTION ( 'NONE',  ( -0.0000000000000000000, -0.0000000000000000000, -1.000000000000000000 ) ) ;
#115 = LINE ( 'NONE', #154, #42 ) ;
#116 = EDGE_LOOP ( 'NONE', ( #44, #50, #123, #65 ) ) ;
#117 = LINE ( 'NONE', #158, #51 ) ;
#118 = UNCERTAINTY_MEASURE_WITH_UNIT (LENGTH_MEASURE( 1.000000000000000100E-005 ), #185, 'distance_accuracy_value', 'NONE');
#119 = DIRECTION ( 'NONE',  ( 0.0000000000000000000, 1.000000000000000000, 0.0000000000000000000 ) ) ;
#120 = AXIS2_PLACEMENT_3D ( 'NONE', #66, #107, #143 ) ;
#121 =( NAMED_UNIT ( * ) PLANE_ANGLE_UNIT ( ) SI_UNIT ( $, .RADIAN. ) );
#122 = DATE_TIME_ROLE ( 'classification_date' ) ;
#123 = ORIENTED_EDGE ( 'NONE', *, *, #215, .T. ) ;
#124 = EDGE_CURVE ( 'NONE', #24, #189, #40, .T. ) ;
#125 = PERSON_AND_ORGANIZATION ( #147, #85 ) ;
#126 = DIRECTION ( 'NONE',  ( -0.0000000000000000000, -0.0000000000000000000, -1.000000000000000000 ) ) ;
#127 = EDGE_LOOP ( 'NONE', ( #195, #79, #140, #35 ) ) ;
#128 = DATE_AND_TIME ( #41, #52 ) ;
#129 = PRODUCT_DEFINITION_FORMATION_WITH_SPECIFIED_SOURCE ( 'ANY', '', #73, .NOT_KNOWN. ) ;
#130 = CARTESIAN_POINT ( 'NONE',  ( 17.50000000000000000, 17.50000000000000000, 0.0000000000000000000 ) ) ;
#131 = ORIENTED_EDGE ( 'NONE', *, *, #54, .T. ) ;
#132 = APPROVAL_ROLE ( '' ) ;
#133 = SECURITY_CLASSIFICATION_LEVEL ( 'unclassified' ) ;
#134 = COORDINATED_UNIVERSAL_TIME_OFFSET ( 5, 0, .BEHIND. ) ;
#135 = MECHANICAL_CONTEXT ( 'NONE', #170, 'mechanical' ) ;
#136 = ORIENTED_EDGE ( 'NONE', *, *, #67, .T. ) ;
#137 = ADVANCED_BREP_SHAPE_REPRESENTATION ( 'Web Model 49626', ( #94, #178 ), #151 ) ;
#138 = CALENDAR_DATE ( 2017, 31, 1 ) ;
#139 = AXIS2_PLACEMENT_3D ( 'NONE', #28, #159, #43 ) ;
#140 = ORIENTED_EDGE ( 'NONE', *, *, #168, .F. ) ;
#141 = PLANE ( 'NONE',  #120 ) ;
#142 = CC_DESIGN_PERSON_AND_ORGANIZATION_ASSIGNMENT ( #125, #21, ( #73 ) ) ;
#143 = DIRECTION ( 'NONE',  ( 0.0000000000000000000, 0.0000000000000000000, 1.000000000000000000 ) ) ;
#144 = ORIENTED_EDGE ( 'NONE', *, *, #30, .F. ) ;
#145 = PERSON_AND_ORGANIZATION ( #147, #85 ) ;
#146 = CARTESIAN_POINT ( 'NONE',  ( -17.50000000000000000, -17.50000000000000000, 3.000000000000000000 ) ) ;
#147 = PERSON ( 'UNSPECIFIED', 'UNSPECIFIED', 'UNSPECIFIED', ('UNSPECIFIED'), ('UNSPECIFIED'), ('UNSPECIFIED') ) ;
#148 = ORIENTED_EDGE ( 'NONE', *, *, #54, .F. ) ;
#149 =( NAMED_UNIT ( * ) SI_UNIT ( $, .STERADIAN. ) SOLID_ANGLE_UNIT ( ) );
#150 = DATE_AND_TIME ( #138, #76 ) ;
#151 =( GEOMETRIC_REPRESENTATION_CONTEXT ( 3 ) GLOBAL_UNCERTAINTY_ASSIGNED_CONTEXT ( ( #118 ) ) GLOBAL_UNIT_ASSIGNED_CONTEXT ( ( #185, #121, #149 ) ) REPRESENTATION_CONTEXT ( 'NONE', 'WORKASPACE' ) );
#152 = APPROVAL_STATUS ( 'not_yet_approved' ) ;
#153 = CC_DESIGN_PERSON_AND_ORGANIZATION_ASSIGNMENT ( #145, #97, ( #129 ) ) ;
#154 = CARTESIAN_POINT ( 'NONE',  ( 17.50000000000000000, 17.50000000000000000, 3.000000000000000000 ) ) ;
#155 = VERTEX_POINT ( 'NONE', #63 ) ;
#156 = CALENDAR_DATE ( 2017, 31, 1 ) ;
#157 = LINE ( 'NONE', #36, #5 ) ;
#158 = CARTESIAN_POINT ( 'NONE',  ( -17.50000000000000000, 17.50000000000000000, 0.0000000000000000000 ) ) ;
#159 = DIRECTION ( 'NONE',  ( -0.0000000000000000000, 0.0000000000000000000, 1.000000000000000000 ) ) ;
#160 = CARTESIAN_POINT ( 'NONE',  ( 17.50000000000000000, 17.50000000000000000, 0.0000000000000000000 ) ) ;
#161 = EDGE_LOOP ( 'NONE', ( #179, #100, #222, #136 ) ) ;
#162 = APPROVAL_DATE_TIME ( #93, #46 ) ;
#163 = CARTESIAN_POINT ( 'NONE',  ( -17.50000000000000000, -17.50000000000000000, 0.0000000000000000000 ) ) ;
#164 = CARTESIAN_POINT ( 'NONE',  ( -17.50000000000000000, -17.50000000000000000, 0.0000000000000000000 ) ) ;
#165 = CC_DESIGN_PERSON_AND_ORGANIZATION_ASSIGNMENT ( #204, #220, ( #91 ) ) ;
#166 = DIRECTION ( 'NONE',  ( 0.0000000000000000000, -1.000000000000000000, 0.0000000000000000000 ) ) ;
#167 = EDGE_LOOP ( 'NONE', ( #72, #148, #49, #202 ) ) ;
#168 = EDGE_CURVE ( 'NONE', #208, #217, #2, .T. ) ;
#169 = APPLICATION_PROTOCOL_DEFINITION ( 'international standard', 'config_control_design', 1994, #77 ) ;
#170 = APPLICATION_CONTEXT ( 'configuration controlled 3d designs of mechanical parts and assemblies' ) ;
#171 = VECTOR ( 'NONE', #126, 1000.000000000000000 ) ;
#172 = APPROVAL_ROLE ( '' ) ;
#173 = ORIENTED_EDGE ( 'NONE', *, *, #86, .F. ) ;
#174 = ADVANCED_FACE ( 'NONE', ( #87 ), #177, .F. ) ;
#175 = ADVANCED_FACE ( 'NONE', ( #180 ), #7, .T. ) ;
#176 = LOCAL_TIME ( 10, 23, 10.00000000000000000, #60 ) ;
#177 = PLANE ( 'NONE',  #6 ) ;
#178 = AXIS2_PLACEMENT_3D ( 'NONE', #20, #237, #187 ) ;
#179 = ORIENTED_EDGE ( 'NONE', *, *, #102, .T. ) ;
#180 = FACE_OUTER_BOUND ( 'NONE', #116, .T. ) ;
#181 = CALENDAR_DATE ( 2017, 31, 1 ) ;
#182 = DIRECTION ( 'NONE',  ( 0.0000000000000000000, -1.000000000000000000, 0.0000000000000000000 ) ) ;
#183 = DIRECTION ( 'NONE',  ( 1.000000000000000000, 0.0000000000000000000, 0.0000000000000000000 ) ) ;
#184 = PRODUCT_DEFINITION ( 'UNKNOWN', '', #129, #27 ) ;
#185 =( LENGTH_UNIT ( ) NAMED_UNIT ( * ) SI_UNIT ( .MILLI., .METRE. ) );
#186 = APPROVAL_DATE_TIME ( #190, #200 ) ;
#187 = DIRECTION ( 'NONE',  ( 1.000000000000000000, 0.0000000000000000000, 0.0000000000000000000 ) ) ;
#188 = CARTESIAN_POINT ( 'NONE',  ( -17.50000000000000000, -17.50000000000000000, 3.000000000000000000 ) ) ;
#189 = VERTEX_POINT ( 'NONE', #105 ) ;
#190 = DATE_AND_TIME ( #181, #176 ) ;
#191 = VECTOR ( 'NONE', #183, 1000.000000000000000 ) ;
#192 = DIRECTION ( 'NONE',  ( -0.0000000000000000000, 1.000000000000000000, -0.0000000000000000000 ) ) ;
#193 = CARTESIAN_POINT ( 'NONE',  ( -17.50000000000000000, 17.50000000000000000, 0.0000000000000000000 ) ) ;
#194 = CARTESIAN_POINT ( 'NONE',  ( -17.50000000000000000, 17.50000000000000000, 3.000000000000000000 ) ) ;
#195 = ORIENTED_EDGE ( 'NONE', *, *, #124, .F. ) ;
#196 = PERSON_AND_ORGANIZATION ( #147, #85 ) ;
#197 = LINE ( 'NONE', #34, #103 ) ;
#198 = LINE ( 'NONE', #194, #26 ) ;
#199 = DIRECTION ( 'NONE',  ( 1.000000000000000000, 0.0000000000000000000, 0.0000000000000000000 ) ) ;
#200 = APPROVAL ( #206, 'UNSPECIFIED' ) ;
#201 = CARTESIAN_POINT ( 'NONE',  ( -17.50000000000000000, -17.50000000000000000, 3.000000000000000000 ) ) ;
#202 = ORIENTED_EDGE ( 'NONE', *, *, #96, .T. ) ;
#203 = EDGE_CURVE ( 'NONE', #1, #155, #32, .T. ) ;
#204 = PERSON_AND_ORGANIZATION ( #147, #85 ) ;
#205 = APPROVAL_STATUS ( 'not_yet_approved' ) ;
#206 = APPROVAL_STATUS ( 'not_yet_approved' ) ;
#207 = PERSON_AND_ORGANIZATION_ROLE ( 'creator' ) ;
#208 = VERTEX_POINT ( 'NONE', #113 ) ;
#209 = CALENDAR_DATE ( 2017, 31, 1 ) ;
#210 = DIRECTION ( 'NONE',  ( 1.000000000000000000, 0.0000000000000000000, -0.0000000000000000000 ) ) ;
#211 = CC_DESIGN_DATE_AND_TIME_ASSIGNMENT ( #128, #122, ( #91 ) ) ;
#212 = CLOSED_SHELL ( 'NONE', ( #174, #223, #99, #59, #175, #25 ) ) ;
#213 = LINE ( 'NONE', #231, #171 ) ;
#214 = CARTESIAN_POINT ( 'NONE',  ( -17.50000000000000000, 17.50000000000000000, 3.000000000000000000 ) ) ;
#215 = EDGE_CURVE ( 'NONE', #17, #1, #115, .T. ) ;
#216 = DIRECTION ( 'NONE',  ( 0.0000000000000000000, -0.0000000000000000000, -1.000000000000000000 ) ) ;
#217 = VERTEX_POINT ( 'NONE', #130 ) ;
#218 = CARTESIAN_POINT ( 'NONE',  ( 17.50000000000000000, -17.50000000000000000, 3.000000000000000000 ) ) ;
#219 = PERSON_AND_ORGANIZATION ( #147, #85 ) ;
#220 = PERSON_AND_ORGANIZATION_ROLE ( 'classification_officer' ) ;
#221 = APPROVAL ( #205, 'UNSPECIFIED' ) ;
#222 = ORIENTED_EDGE ( 'NONE', *, *, #203, .F. ) ;
#223 = ADVANCED_FACE ( 'NONE', ( #31 ), #235, .F. ) ;
#224 = AXIS2_PLACEMENT_3D ( 'NONE', #188, #119, #95 ) ;
#225 = COORDINATED_UNIVERSAL_TIME_OFFSET ( 5, 0, .BEHIND. ) ;
#226 = ORIENTED_EDGE ( 'NONE', *, *, #12, .T. ) ;
#227 = DIRECTION ( 'NONE',  ( -0.0000000000000000000, 0.0000000000000000000, -1.000000000000000000 ) ) ;
#228 = VECTOR ( 'NONE', #9, 1000.000000000000000 ) ;
#229 = COORDINATED_UNIVERSAL_TIME_OFFSET ( 5, 0, .BEHIND. ) ;
#230 = LINE ( 'NONE', #232, #236 ) ;
#231 = CARTESIAN_POINT ( 'NONE',  ( 17.50000000000000000, -17.50000000000000000, 3.000000000000000000 ) ) ;
#232 = CARTESIAN_POINT ( 'NONE',  ( -17.50000000000000000, -17.50000000000000000, 3.000000000000000000 ) ) ;
#233 = CC_DESIGN_APPROVAL ( #221, ( #91 ) ) ;
#234 = ORIENTED_EDGE ( 'NONE', *, *, #67, .F. ) ;
#235 = PLANE ( 'NONE',  #224 ) ;
#236 = VECTOR ( 'NONE', #199, 1000.000000000000000 ) ;
#237 = DIRECTION ( 'NONE',  ( 0.0000000000000000000, 0.0000000000000000000, 1.000000000000000000 ) ) ;
ENDSEC;
END-ISO-10303-21;
