ISO-10303-21;
HEADER;
FILE_DESCRIPTION (( 'STEP AP203' ),
    '1' );
FILE_NAME ('Web Model 31411_46674.step',
    '2017-04-10T17:51:57',
    ( '' ),
    ( '' ),
    'SwSTEP 2.0',
    'SolidWorks 2016',
    '' );
FILE_SCHEMA (( 'CONFIG_CONTROL_DESIGN' ));
ENDSEC;

DATA;
#1 = ORIENTED_EDGE ( 'NONE', *, *, #89, .F. ) ;
#2 =( NAMED_UNIT ( * ) PLANE_ANGLE_UNIT ( ) SI_UNIT ( $, .RADIAN. ) );
#3 = VECTOR ( 'NONE', #39, 1000.000000000000000 ) ;
#4 = CC_DESIGN_PERSON_AND_ORGANIZATION_ASSIGNMENT ( #200, #237, ( #197 ) ) ;
#5 = CARTESIAN_POINT ( 'NONE',  ( 12.50000000000001600, -38.00000000000002100, 1.000000000000000000 ) ) ;
#6 = ORIENTED_EDGE ( 'NONE', *, *, #117, .T. ) ;
#7 = ORIENTED_EDGE ( 'NONE', *, *, #179, .F. ) ;
#8 = MECHANICAL_CONTEXT ( 'NONE', #90, 'mechanical' ) ;
#9 = APPROVAL_DATE_TIME ( #142, #112 ) ;
#10 = LOCAL_TIME ( 13, 51, 57.00000000000000000, #119 ) ;
#11 = COORDINATED_UNIVERSAL_TIME_OFFSET ( 5, 0, .BEHIND. ) ;
#12 = FACE_OUTER_BOUND ( 'NONE', #230, .T. ) ;
#13 = VERTEX_POINT ( 'NONE', #52 ) ;
#14 = ORIENTED_EDGE ( 'NONE', *, *, #153, .T. ) ;
#15 = APPROVAL_DATE_TIME ( #130, #129 ) ;
#16 = ORIENTED_EDGE ( 'NONE', *, *, #64, .F. ) ;
#17 = CARTESIAN_POINT ( 'NONE',  ( 12.50000000000000200, 37.99999999999997900, -1.000000000000000000 ) ) ;
#18 = ORIENTED_EDGE ( 'NONE', *, *, #64, .T. ) ;
#19 = APPROVAL_PERSON_ORGANIZATION ( #28, #129, #138 ) ;
#20 = VECTOR ( 'NONE', #120, 1000.000000000000000 ) ;
#21 = PRODUCT_DEFINITION ( 'UNKNOWN', '', #67, #116 ) ;
#22 = ORIENTED_EDGE ( 'NONE', *, *, #61, .F. ) ;
#23 = AXIS2_PLACEMENT_3D ( 'NONE', #165, #131, #191 ) ;
#24 = CALENDAR_DATE ( 2017, 10, 4 ) ;
#25 = DIRECTION ( 'NONE',  ( 1.000000000000000000, 0.0000000000000000000, 0.0000000000000000000 ) ) ;
#26 = APPLICATION_CONTEXT ( 'configuration controlled 3d designs of mechanical parts and assemblies' ) ;
#27 = DIRECTION ( 'NONE',  ( 0.0000000000000000000, 0.0000000000000000000, 1.000000000000000000 ) ) ;
#28 = PERSON_AND_ORGANIZATION ( #158, #198 ) ;
#29 = DIRECTION ( 'NONE',  ( 0.0000000000000000000, 1.000000000000000000, 0.0000000000000000000 ) ) ;
#30 = DATE_AND_TIME ( #176, #206 ) ;
#31 = ADVANCED_FACE ( 'NONE', ( #125 ), #46, .F. ) ;
#32 = AXIS2_PLACEMENT_3D ( 'NONE', #218, #27, #101 ) ;
#33 = MANIFOLD_SOLID_BREP ( 'Boss-Extrude1', #213 ) ;
#34 = DIRECTION ( 'NONE',  ( 1.369518533665900300E-016, -1.000000000000000000, 0.0000000000000000000 ) ) ;
#35 = ADVANCED_FACE ( 'NONE', ( #87 ), #195, .F. ) ;
#36 = PERSON_AND_ORGANIZATION_ROLE ( 'classification_officer' ) ;
#37 = ORIENTED_EDGE ( 'NONE', *, *, #199, .F. ) ;
#38 = VECTOR ( 'NONE', #216, 1000.000000000000000 ) ;
#39 = DIRECTION ( 'NONE',  ( -1.826024711554533900E-016, 1.000000000000000000, -0.0000000000000000000 ) ) ;
#40 = ORIENTED_EDGE ( 'NONE', *, *, #61, .T. ) ;
#41 = AXIS2_PLACEMENT_3D ( 'NONE', #205, #29, #95 ) ;
#42 = DIRECTION ( 'NONE',  ( -0.0000000000000000000, -0.0000000000000000000, -1.000000000000000000 ) ) ;
#43 = ORIENTED_EDGE ( 'NONE', *, *, #227, .T. ) ;
#44 = ADVANCED_FACE ( 'NONE', ( #132 ), #68, .T. ) ;
#45 = ADVANCED_FACE ( 'NONE', ( #51 ), #47, .F. ) ;
#46 = PLANE ( 'NONE',  #23 ) ;
#47 = PLANE ( 'NONE',  #169 ) ;
#48 = LINE ( 'NONE', #228, #183 ) ;
#49 = LOCAL_TIME ( 13, 51, 57.00000000000000000, #102 ) ;
#50 = LINE ( 'NONE', #159, #217 ) ;
#51 = FACE_OUTER_BOUND ( 'NONE', #181, .T. ) ;
#52 = CARTESIAN_POINT ( 'NONE',  ( 12.50000000000001600, -38.00000000000002100, 1.000000000000000000 ) ) ;
#53 = ORIENTED_EDGE ( 'NONE', *, *, #227, .F. ) ;
#54 = CC_DESIGN_DATE_AND_TIME_ASSIGNMENT ( #193, #55, ( #21 ) ) ;
#55 = DATE_TIME_ROLE ( 'creation_date' ) ;
#56 = DATE_TIME_ROLE ( 'classification_date' ) ;
#57 = PRODUCT_RELATED_PRODUCT_CATEGORY ( 'detail', '', ( #197 ) ) ;
#58 = LINE ( 'NONE', #97, #3 ) ;
#59 = ADVANCED_FACE ( 'NONE', ( #12 ), #126, .F. ) ;
#60 = CARTESIAN_POINT ( 'NONE',  ( -12.49999999999999800, 37.99999999999997900, 1.000000000000000000 ) ) ;
#61 = EDGE_CURVE ( 'NONE', #166, #184, #111, .T. ) ;
#62 = LINE ( 'NONE', #201, #173 ) ;
#63 = EDGE_LOOP ( 'NONE', ( #6, #37, #203, #225 ) ) ;
#64 = EDGE_CURVE ( 'NONE', #65, #144, #78, .T. ) ;
#65 = VERTEX_POINT ( 'NONE', #66 ) ;
#66 = CARTESIAN_POINT ( 'NONE',  ( -12.49999999999998900, -38.00000000000002100, -1.000000000000000000 ) ) ;
#67 = PRODUCT_DEFINITION_FORMATION_WITH_SPECIFIED_SOURCE ( 'ANY', '', #197, .NOT_KNOWN. ) ;
#68 = PLANE ( 'NONE',  #83 ) ;
#69 = ORIENTED_EDGE ( 'NONE', *, *, #179, .T. ) ;
#70 = DIRECTION ( 'NONE',  ( -1.369518533665900300E-016, 1.000000000000000000, 0.0000000000000000000 ) ) ;
#71 = CC_DESIGN_DATE_AND_TIME_ASSIGNMENT ( #30, #56, ( #152 ) ) ;
#72 = LOCAL_TIME ( 13, 51, 57.00000000000000000, #11 ) ;
#73 = EDGE_CURVE ( 'NONE', #13, #144, #148, .T. ) ;
#74 = PERSON_AND_ORGANIZATION ( #158, #198 ) ;
#75 = VECTOR ( 'NONE', #80, 1000.000000000000000 ) ;
#76 = DIRECTION ( 'NONE',  ( -0.0000000000000000000, 0.0000000000000000000, 1.000000000000000000 ) ) ;
#77 = DIRECTION ( 'NONE',  ( 1.826024711554533900E-016, -1.000000000000000000, 0.0000000000000000000 ) ) ;
#78 = LINE ( 'NONE', #85, #233 ) ;
#79 = VECTOR ( 'NONE', #226, 1000.000000000000000 ) ;
#80 = DIRECTION ( 'NONE',  ( -0.0000000000000000000, -0.0000000000000000000, -1.000000000000000000 ) ) ;
#81 = APPROVAL_PERSON_ORGANIZATION ( #113, #231, #147 ) ;
#82 = CARTESIAN_POINT ( 'NONE',  ( -12.49999999999999800, 37.99999999999997900, -1.000000000000000000 ) ) ;
#83 = AXIS2_PLACEMENT_3D ( 'NONE', #141, #76, #133 ) ;
#84 = COORDINATED_UNIVERSAL_TIME_OFFSET ( 5, 0, .BEHIND. ) ;
#85 = CARTESIAN_POINT ( 'NONE',  ( -12.49999999999998900, -38.00000000000002100, -1.000000000000000000 ) ) ;
#86 = ORIENTED_EDGE ( 'NONE', *, *, #73, .T. ) ;
#87 = FACE_OUTER_BOUND ( 'NONE', #162, .T. ) ;
#88 = ORIENTED_EDGE ( 'NONE', *, *, #114, .F. ) ;
#89 = EDGE_CURVE ( 'NONE', #98, #184, #137, .T. ) ;
#90 = APPLICATION_CONTEXT ( 'configuration controlled 3d designs of mechanical parts and assemblies' ) ;
#91 = CC_DESIGN_SECURITY_CLASSIFICATION ( #152, ( #67 ) ) ;
#92 = CARTESIAN_POINT ( 'NONE',  ( -12.49999999999999800, 37.99999999999997900, -1.000000000000000000 ) ) ;
#93 = PERSON_AND_ORGANIZATION ( #158, #198 ) ;
#94 = LINE ( 'NONE', #180, #38 ) ;
#95 = DIRECTION ( 'NONE',  ( 0.0000000000000000000, -0.0000000000000000000, 1.000000000000000000 ) ) ;
#96 = CC_DESIGN_APPROVAL ( #231, ( #152 ) ) ;
#97 = CARTESIAN_POINT ( 'NONE',  ( 12.50000000000000200, 37.99999999999997900, 1.000000000000000000 ) ) ;
#98 = VERTEX_POINT ( 'NONE', #140 ) ;
#99 = CARTESIAN_POINT ( 'NONE',  ( -12.49999999999998900, -38.00000000000002100, 1.000000000000000000 ) ) ;
#100 = LOCAL_TIME ( 13, 51, 57.00000000000000000, #202 ) ;
#101 = DIRECTION ( 'NONE',  ( 1.000000000000000000, 0.0000000000000000000, 0.0000000000000000000 ) ) ;
#102 = COORDINATED_UNIVERSAL_TIME_OFFSET ( 5, 0, .BEHIND. ) ;
#103 = CARTESIAN_POINT ( 'NONE',  ( -12.49999999999999800, 37.99999999999997900, 1.000000000000000000 ) ) ;
#104 = DIRECTION ( 'NONE',  ( 1.000000000000000000, 1.369518533665900300E-016, -0.0000000000000000000 ) ) ;
#105 = DIRECTION ( 'NONE',  ( 1.369518533665900300E-016, -1.000000000000000000, 0.0000000000000000000 ) ) ;
#106 = DIRECTION ( 'NONE',  ( -1.000000000000000000, -1.826024711554533900E-016, 0.0000000000000000000 ) ) ;
#107 = DIRECTION ( 'NONE',  ( 0.0000000000000000000, -1.000000000000000000, 0.0000000000000000000 ) ) ;
#108 = LINE ( 'NONE', #99, #20 ) ;
#109 = LINE ( 'NONE', #219, #177 ) ;
#110 = CARTESIAN_POINT ( 'NONE',  ( 12.50000000000000200, 37.99999999999997900, -1.000000000000000000 ) ) ;
#111 = LINE ( 'NONE', #92, #115 ) ;
#112 = APPROVAL ( #186, 'UNSPECIFIED' ) ;
#113 = PERSON_AND_ORGANIZATION ( #158, #198 ) ;
#114 = EDGE_CURVE ( 'NONE', #144, #166, #187, .T. ) ;
#115 = VECTOR ( 'NONE', #174, 1000.000000000000000 ) ;
#116 = DESIGN_CONTEXT ( 'detailed design', #26, 'design' ) ;
#117 = EDGE_CURVE ( 'NONE', #184, #65, #109, .T. ) ;
#118 = CARTESIAN_POINT ( 'NONE',  ( 12.50000000000000200, 37.99999999999997900, 1.000000000000000000 ) ) ;
#119 = COORDINATED_UNIVERSAL_TIME_OFFSET ( 5, 0, .BEHIND. ) ;
#120 = DIRECTION ( 'NONE',  ( 1.000000000000000000, 0.0000000000000000000, 0.0000000000000000000 ) ) ;
#121 = CC_DESIGN_PERSON_AND_ORGANIZATION_ASSIGNMENT ( #167, #208, ( #67 ) ) ;
#122 = DATE_AND_TIME ( #150, #10 ) ;
#123 = CARTESIAN_POINT ( 'NONE',  ( 12.50000000000001600, -38.00000000000002100, -1.000000000000000000 ) ) ;
#124 = PLANE ( 'NONE',  #236 ) ;
#125 = FACE_OUTER_BOUND ( 'NONE', #127, .T. ) ;
#126 = PLANE ( 'NONE',  #143 ) ;
#127 = EDGE_LOOP ( 'NONE', ( #88, #16, #135, #22 ) ) ;
#128 = ORIENTED_EDGE ( 'NONE', *, *, #160, .T. ) ;
#129 = APPROVAL ( #168, 'UNSPECIFIED' ) ;
#130 = DATE_AND_TIME ( #24, #100 ) ;
#131 = DIRECTION ( 'NONE',  ( -0.0000000000000000000, 0.0000000000000000000, 1.000000000000000000 ) ) ;
#132 = FACE_OUTER_BOUND ( 'NONE', #161, .T. ) ;
#133 = DIRECTION ( 'NONE',  ( 1.000000000000000000, 0.0000000000000000000, 0.0000000000000000000 ) ) ;
#134 = PERSON_AND_ORGANIZATION ( #158, #198 ) ;
#135 = ORIENTED_EDGE ( 'NONE', *, *, #117, .F. ) ;
#136 = ORIENTED_EDGE ( 'NONE', *, *, #199, .T. ) ;
#137 = LINE ( 'NONE', #156, #75 ) ;
#138 = APPROVAL_ROLE ( '' ) ;
#139 = PRODUCT_DEFINITION_SHAPE ( 'NONE', 'NONE',  #21 ) ;
#140 = CARTESIAN_POINT ( 'NONE',  ( -12.49999999999999800, 37.99999999999997900, 1.000000000000000000 ) ) ;
#141 = CARTESIAN_POINT ( 'NONE',  ( 0.0000000000000000000, 0.0000000000000000000, 1.000000000000000000 ) ) ;
#142 = DATE_AND_TIME ( #192, #49 ) ;
#143 = AXIS2_PLACEMENT_3D ( 'NONE', #163, #106, #77 ) ;
#144 = VERTEX_POINT ( 'NONE', #123 ) ;
#145 = APPLICATION_PROTOCOL_DEFINITION ( 'international standard', 'config_control_design', 1994, #90 ) ;
#146 = PERSON_AND_ORGANIZATION ( #158, #198 ) ;
#147 = APPROVAL_ROLE ( '' ) ;
#148 = LINE ( 'NONE', #5, #79 ) ;
#149 = CC_DESIGN_PERSON_AND_ORGANIZATION_ASSIGNMENT ( #74, #36, ( #152 ) ) ;
#150 = CALENDAR_DATE ( 2017, 10, 4 ) ;
#151 = DIRECTION ( 'NONE',  ( -1.826024711554533900E-016, 1.000000000000000000, -0.0000000000000000000 ) ) ;
#152 = SECURITY_CLASSIFICATION ( '', '', #207 ) ;
#153 = EDGE_CURVE ( 'NONE', #98, #214, #62, .T. ) ;
#154 = UNCERTAINTY_MEASURE_WITH_UNIT (LENGTH_MEASURE( 1.000000000000000100E-005 ), #209, 'distance_accuracy_value', 'NONE');
#155 = ORIENTED_EDGE ( 'NONE', *, *, #160, .F. ) ;
#156 = CARTESIAN_POINT ( 'NONE',  ( -12.49999999999999800, 37.99999999999997900, 1.000000000000000000 ) ) ;
#157 = PERSON_AND_ORGANIZATION_ROLE ( 'creator' ) ;
#158 = PERSON ( 'UNSPECIFIED', 'UNSPECIFIED', 'UNSPECIFIED', ('UNSPECIFIED'), ('UNSPECIFIED'), ('UNSPECIFIED') ) ;
#159 = CARTESIAN_POINT ( 'NONE',  ( -12.49999999999998900, -38.00000000000002100, 1.000000000000000000 ) ) ;
#160 = EDGE_CURVE ( 'NONE', #13, #220, #58, .T. ) ;
#161 = EDGE_LOOP ( 'NONE', ( #128, #223, #14, #43 ) ) ;
#162 = EDGE_LOOP ( 'NONE', ( #18, #178, #53, #136 ) ) ;
#163 = CARTESIAN_POINT ( 'NONE',  ( 12.50000000000000200, 37.99999999999997900, 1.000000000000000000 ) ) ;
#164 = CC_DESIGN_APPROVAL ( #112, ( #67 ) ) ;
#165 = CARTESIAN_POINT ( 'NONE',  ( 0.0000000000000000000, 0.0000000000000000000, -1.000000000000000000 ) ) ;
#166 = VERTEX_POINT ( 'NONE', #17 ) ;
#167 = PERSON_AND_ORGANIZATION ( #158, #198 ) ;
#168 = APPROVAL_STATUS ( 'not_yet_approved' ) ;
#169 = AXIS2_PLACEMENT_3D ( 'NONE', #103, #107, #175 ) ;
#170 = APPROVAL_PERSON_ORGANIZATION ( #134, #112, #188 ) ;
#171 = CC_DESIGN_PERSON_AND_ORGANIZATION_ASSIGNMENT ( #146, #235, ( #67 ) ) ;
#172 = APPROVAL_STATUS ( 'not_yet_approved' ) ;
#173 = VECTOR ( 'NONE', #34, 1000.000000000000000 ) ;
#174 = DIRECTION ( 'NONE',  ( -1.000000000000000000, -0.0000000000000000000, -0.0000000000000000000 ) ) ;
#175 = DIRECTION ( 'NONE',  ( 0.0000000000000000000, -0.0000000000000000000, -1.000000000000000000 ) ) ;
#176 = CALENDAR_DATE ( 2017, 10, 4 ) ;
#177 = VECTOR ( 'NONE', #105, 1000.000000000000000 ) ;
#178 = ORIENTED_EDGE ( 'NONE', *, *, #73, .F. ) ;
#179 = EDGE_CURVE ( 'NONE', #220, #166, #48, .T. ) ;
#180 = CARTESIAN_POINT ( 'NONE',  ( -12.49999999999999800, 37.99999999999997900, 1.000000000000000000 ) ) ;
#181 = EDGE_LOOP ( 'NONE', ( #40, #1, #221, #69 ) ) ;
#182 = ADVANCED_BREP_SHAPE_REPRESENTATION ( 'Web Model 31411_46674', ( #33, #32 ), #189 ) ;
#183 = VECTOR ( 'NONE', #194, 1000.000000000000000 ) ;
#184 = VERTEX_POINT ( 'NONE', #82 ) ;
#185 = VECTOR ( 'NONE', #151, 1000.000000000000000 ) ;
#186 = APPROVAL_STATUS ( 'not_yet_approved' ) ;
#187 = LINE ( 'NONE', #110, #185 ) ;
#188 = APPROVAL_ROLE ( '' ) ;
#189 =( GEOMETRIC_REPRESENTATION_CONTEXT ( 3 ) GLOBAL_UNCERTAINTY_ASSIGNED_CONTEXT ( ( #154 ) ) GLOBAL_UNIT_ASSIGNED_CONTEXT ( ( #209, #2, #222 ) ) REPRESENTATION_CONTEXT ( 'NONE', 'WORKASPACE' ) );
#190 = CALENDAR_DATE ( 2017, 10, 4 ) ;
#191 = DIRECTION ( 'NONE',  ( 1.000000000000000000, 0.0000000000000000000, 0.0000000000000000000 ) ) ;
#192 = CALENDAR_DATE ( 2017, 10, 4 ) ;
#193 = DATE_AND_TIME ( #190, #72 ) ;
#194 = DIRECTION ( 'NONE',  ( -0.0000000000000000000, -0.0000000000000000000, -1.000000000000000000 ) ) ;
#195 = PLANE ( 'NONE',  #41 ) ;
#196 = CARTESIAN_POINT ( 'NONE',  ( -12.49999999999998900, -38.00000000000002100, 1.000000000000000000 ) ) ;
#197 = PRODUCT ( 'Web Model 31411_46674', 'Web Model 31411_46674', '', ( #8 ) ) ;
#198 = ORGANIZATION ( 'UNSPECIFIED', 'UNSPECIFIED', '' ) ;
#199 = EDGE_CURVE ( 'NONE', #214, #65, #50, .T. ) ;
#200 = PERSON_AND_ORGANIZATION ( #158, #198 ) ;
#201 = CARTESIAN_POINT ( 'NONE',  ( -12.49999999999999800, 37.99999999999997900, 1.000000000000000000 ) ) ;
#202 = COORDINATED_UNIVERSAL_TIME_OFFSET ( 5, 0, .BEHIND. ) ;
#203 = ORIENTED_EDGE ( 'NONE', *, *, #153, .F. ) ;
#204 = FACE_OUTER_BOUND ( 'NONE', #63, .T. ) ;
#205 = CARTESIAN_POINT ( 'NONE',  ( -12.49999999999998900, -38.00000000000002100, 1.000000000000000000 ) ) ;
#206 = LOCAL_TIME ( 13, 51, 57.00000000000000000, #84 ) ;
#207 = SECURITY_CLASSIFICATION_LEVEL ( 'unclassified' ) ;
#208 = PERSON_AND_ORGANIZATION_ROLE ( 'design_supplier' ) ;
#209 =( LENGTH_UNIT ( ) NAMED_UNIT ( * ) SI_UNIT ( .MILLI., .METRE. ) );
#210 = APPROVAL_DATE_TIME ( #122, #231 ) ;
#211 = EDGE_CURVE ( 'NONE', #220, #98, #94, .T. ) ;
#212 = CC_DESIGN_APPROVAL ( #129, ( #21 ) ) ;
#213 = CLOSED_SHELL ( 'NONE', ( #59, #45, #224, #35, #44, #31 ) ) ;
#214 = VERTEX_POINT ( 'NONE', #196 ) ;
#215 = ORIENTED_EDGE ( 'NONE', *, *, #114, .T. ) ;
#216 = DIRECTION ( 'NONE',  ( -1.000000000000000000, -0.0000000000000000000, -0.0000000000000000000 ) ) ;
#217 = VECTOR ( 'NONE', #42, 1000.000000000000000 ) ;
#218 = CARTESIAN_POINT ( 'NONE',  ( 0.0000000000000000000, 0.0000000000000000000, 0.0000000000000000000 ) ) ;
#219 = CARTESIAN_POINT ( 'NONE',  ( -12.49999999999999800, 37.99999999999997900, -1.000000000000000000 ) ) ;
#220 = VERTEX_POINT ( 'NONE', #118 ) ;
#221 = ORIENTED_EDGE ( 'NONE', *, *, #211, .F. ) ;
#222 =( NAMED_UNIT ( * ) SI_UNIT ( $, .STERADIAN. ) SOLID_ANGLE_UNIT ( ) );
#223 = ORIENTED_EDGE ( 'NONE', *, *, #211, .T. ) ;
#224 = ADVANCED_FACE ( 'NONE', ( #204 ), #124, .F. ) ;
#225 = ORIENTED_EDGE ( 'NONE', *, *, #89, .T. ) ;
#226 = DIRECTION ( 'NONE',  ( -0.0000000000000000000, -0.0000000000000000000, -1.000000000000000000 ) ) ;
#227 = EDGE_CURVE ( 'NONE', #214, #13, #108, .T. ) ;
#228 = CARTESIAN_POINT ( 'NONE',  ( 12.50000000000000200, 37.99999999999997900, 1.000000000000000000 ) ) ;
#229 = CC_DESIGN_PERSON_AND_ORGANIZATION_ASSIGNMENT ( #93, #157, ( #21 ) ) ;
#230 = EDGE_LOOP ( 'NONE', ( #215, #7, #155, #86 ) ) ;
#231 = APPROVAL ( #172, 'UNSPECIFIED' ) ;
#232 = APPLICATION_PROTOCOL_DEFINITION ( 'international standard', 'config_control_design', 1994, #26 ) ;
#233 = VECTOR ( 'NONE', #25, 1000.000000000000000 ) ;
#234 = SHAPE_DEFINITION_REPRESENTATION ( #139, #182 ) ;
#235 = PERSON_AND_ORGANIZATION_ROLE ( 'creator' ) ;
#236 = AXIS2_PLACEMENT_3D ( 'NONE', #60, #104, #70 ) ;
#237 = PERSON_AND_ORGANIZATION_ROLE ( 'design_owner' ) ;
ENDSEC;
END-ISO-10303-21;
