ISO-10303-21;
HEADER;
FILE_DESCRIPTION (( 'STEP AP203' ),
    '1' );
FILE_NAME ('Web Model 83359_83364.step',
    '2017-04-26T17:35:05',
    ( '' ),
    ( '' ),
    'SwSTEP 2.0',
    'SolidWorks 2016',
    '' );
FILE_SCHEMA (( 'CONFIG_CONTROL_DESIGN' ));
ENDSEC;

DATA;
#1 = DESIGN_CONTEXT ( 'detailed design', #35, 'design' ) ;
#2 = DATE_AND_TIME ( #7, #174 ) ;
#3 = DIRECTION ( 'NONE',  ( 1.000000000000000000, 0.0000000000000000000, -0.0000000000000000000 ) ) ;
#4 = ORIENTED_EDGE ( 'NONE', *, *, #77, .T. ) ;
#5 = SECURITY_CLASSIFICATION ( '', '', #56 ) ;
#6 = DIRECTION ( 'NONE',  ( 0.0000000000000000000, 0.0000000000000000000, 1.000000000000000000 ) ) ;
#7 = CALENDAR_DATE ( 2017, 26, 4 ) ;
#8 = CC_DESIGN_PERSON_AND_ORGANIZATION_ASSIGNMENT ( #166, #145, ( #33 ) ) ;
#9 = DIRECTION ( 'NONE',  ( 1.000000000000000000, 0.0000000000000000000, 0.0000000000000000000 ) ) ;
#10 = CIRCLE ( 'NONE', #165, 15.00000000000000000 ) ;
#11 = DATE_AND_TIME ( #109, #57 ) ;
#12 = CLOSED_SHELL ( 'NONE', ( #31, #87, #27, #53 ) ) ;
#13 = ORGANIZATION ( 'UNSPECIFIED', 'UNSPECIFIED', '' ) ;
#14 = DIRECTION ( 'NONE',  ( 0.0000000000000000000, 0.0000000000000000000, 1.000000000000000000 ) ) ;
#15 = FACE_OUTER_BOUND ( 'NONE', #135, .T. ) ;
#16 = CARTESIAN_POINT ( 'NONE',  ( 15.00000000000000000, 1.836970198721029600E-015, 1.100000000000000100 ) ) ;
#17 = CC_DESIGN_PERSON_AND_ORGANIZATION_ASSIGNMENT ( #164, #83, ( #33 ) ) ;
#18 = FACE_OUTER_BOUND ( 'NONE', #121, .T. ) ;
#19 = CC_DESIGN_APPROVAL ( #39, ( #33 ) ) ;
#20 = DATE_TIME_ROLE ( 'creation_date' ) ;
#21 = COORDINATED_UNIVERSAL_TIME_OFFSET ( 5, 0, .BEHIND. ) ;
#22 = VECTOR ( 'NONE', #128, 1000.000000000000000 ) ;
#23 = CARTESIAN_POINT ( 'NONE',  ( 0.0000000000000000000, 0.0000000000000000000, 0.0000000000000000000 ) ) ;
#24 = PRODUCT_DEFINITION ( 'UNKNOWN', '', #33, #1 ) ;
#25 = APPROVAL_STATUS ( 'not_yet_approved' ) ;
#26 = ORIENTED_EDGE ( 'NONE', *, *, #137, .T. ) ;
#27 = ADVANCED_FACE ( 'NONE', ( #44 ), #49, .T. ) ;
#28 = LOCAL_TIME ( 13, 35, 5.000000000000000000, #68 ) ;
#29 = PLANE ( 'NONE',  #154 ) ;
#30 = CC_DESIGN_PERSON_AND_ORGANIZATION_ASSIGNMENT ( #143, #106, ( #24 ) ) ;
#31 = ADVANCED_FACE ( 'NONE', ( #108 ), #55, .T. ) ;
#32 = APPROVAL_ROLE ( '' ) ;
#33 = PRODUCT_DEFINITION_FORMATION_WITH_SPECIFIED_SOURCE ( 'ANY', '', #36, .NOT_KNOWN. ) ;
#34 = CC_DESIGN_DATE_AND_TIME_ASSIGNMENT ( #150, #20, ( #24 ) ) ;
#35 = APPLICATION_CONTEXT ( 'configuration controlled 3d designs of mechanical parts and assemblies' ) ;
#36 = PRODUCT ( 'Web Model 83359_83364', 'Web Model 83359_83364', '', ( #117 ) ) ;
#37 = PRODUCT_RELATED_PRODUCT_CATEGORY ( 'detail', '', ( #36 ) ) ;
#38 = APPROVAL ( #40, 'UNSPECIFIED' ) ;
#39 = APPROVAL ( #105, 'UNSPECIFIED' ) ;
#40 = APPROVAL_STATUS ( 'not_yet_approved' ) ;
#41 = DIRECTION ( 'NONE',  ( -1.000000000000000000, 0.0000000000000000000, 0.0000000000000000000 ) ) ;
#42 = CC_DESIGN_APPROVAL ( #38, ( #24 ) ) ;
#43 = ORIENTED_EDGE ( 'NONE', *, *, #137, .F. ) ;
#44 = FACE_OUTER_BOUND ( 'NONE', #127, .T. ) ;
#45 = CARTESIAN_POINT ( 'NONE',  ( 15.00000000000000000, 1.836970198721029600E-015, 0.0000000000000000000 ) ) ;
#46 = CC_DESIGN_SECURITY_CLASSIFICATION ( #5, ( #33 ) ) ;
#47 = DATE_TIME_ROLE ( 'classification_date' ) ;
#48 = CARTESIAN_POINT ( 'NONE',  ( 0.0000000000000000000, 0.0000000000000000000, 1.100000000000000100 ) ) ;
#49 = PLANE ( 'NONE',  #168 ) ;
#50 = CARTESIAN_POINT ( 'NONE',  ( 15.00000000000000000, 1.836970198721029600E-015, 1.100000000000000100 ) ) ;
#51 = PERSON_AND_ORGANIZATION_ROLE ( 'classification_officer' ) ;
#52 =( NAMED_UNIT ( * ) PLANE_ANGLE_UNIT ( ) SI_UNIT ( $, .RADIAN. ) );
#53 = ADVANCED_FACE ( 'NONE', ( #15 ), #29, .F. ) ;
#54 = PERSON_AND_ORGANIZATION ( #98, #13 ) ;
#55 = CYLINDRICAL_SURFACE ( 'NONE', #175, 15.00000000000000000 ) ;
#56 = SECURITY_CLASSIFICATION_LEVEL ( 'unclassified' ) ;
#57 = LOCAL_TIME ( 13, 35, 5.000000000000000000, #158 ) ;
#58 = AXIS2_PLACEMENT_3D ( 'NONE', #133, #63, #70 ) ;
#59 = EDGE_LOOP ( 'NONE', ( #124, #4, #130, #43 ) ) ;
#60 = CC_DESIGN_APPROVAL ( #74, ( #5 ) ) ;
#61 = CARTESIAN_POINT ( 'NONE',  ( 0.0000000000000000000, 0.0000000000000000000, 0.0000000000000000000 ) ) ;
#62 = PERSON_AND_ORGANIZATION ( #98, #13 ) ;
#63 = DIRECTION ( 'NONE',  ( -0.0000000000000000000, -0.0000000000000000000, -1.000000000000000000 ) ) ;
#64 = AXIS2_PLACEMENT_3D ( 'NONE', #84, #6, #86 ) ;
#65 = DIRECTION ( 'NONE',  ( 1.000000000000000000, 0.0000000000000000000, 0.0000000000000000000 ) ) ;
#66 = VERTEX_POINT ( 'NONE', #45 ) ;
#67 = CC_DESIGN_PERSON_AND_ORGANIZATION_ASSIGNMENT ( #54, #71, ( #36 ) ) ;
#68 = COORDINATED_UNIVERSAL_TIME_OFFSET ( 5, 0, .BEHIND. ) ;
#69 = APPLICATION_PROTOCOL_DEFINITION ( 'international standard', 'config_control_design', 1994, #35 ) ;
#70 = DIRECTION ( 'NONE',  ( -1.000000000000000000, 0.0000000000000000000, 0.0000000000000000000 ) ) ;
#71 = PERSON_AND_ORGANIZATION_ROLE ( 'design_owner' ) ;
#72 =( GEOMETRIC_REPRESENTATION_CONTEXT ( 3 ) GLOBAL_UNCERTAINTY_ASSIGNED_CONTEXT ( ( #173 ) ) GLOBAL_UNIT_ASSIGNED_CONTEXT ( ( #118, #52, #149 ) ) REPRESENTATION_CONTEXT ( 'NONE', 'WORKASPACE' ) );
#73 = DIRECTION ( 'NONE',  ( -0.0000000000000000000, -0.0000000000000000000, -1.000000000000000000 ) ) ;
#74 = APPROVAL ( #25, 'UNSPECIFIED' ) ;
#75 = APPROVAL_DATE_TIME ( #11, #74 ) ;
#76 = PRODUCT_DEFINITION_SHAPE ( 'NONE', 'NONE',  #24 ) ;
#77 = EDGE_CURVE ( 'NONE', #80, #66, #134, .T. ) ;
#78 = DIRECTION ( 'NONE',  ( 0.0000000000000000000, 0.0000000000000000000, 1.000000000000000000 ) ) ;
#79 = DIRECTION ( 'NONE',  ( 0.0000000000000000000, 0.0000000000000000000, 1.000000000000000000 ) ) ;
#80 = VERTEX_POINT ( 'NONE', #50 ) ;
#81 = ORIENTED_EDGE ( 'NONE', *, *, #156, .F. ) ;
#82 = DIRECTION ( 'NONE',  ( 1.000000000000000000, 0.0000000000000000000, 0.0000000000000000000 ) ) ;
#83 = PERSON_AND_ORGANIZATION_ROLE ( 'creator' ) ;
#84 = CARTESIAN_POINT ( 'NONE',  ( 0.0000000000000000000, 0.0000000000000000000, 0.0000000000000000000 ) ) ;
#85 = DIRECTION ( 'NONE',  ( 0.0000000000000000000, 0.0000000000000000000, 1.000000000000000000 ) ) ;
#86 = DIRECTION ( 'NONE',  ( 1.000000000000000000, 0.0000000000000000000, 0.0000000000000000000 ) ) ;
#87 = ADVANCED_FACE ( 'NONE', ( #18 ), #99, .T. ) ;
#88 = CIRCLE ( 'NONE', #116, 15.00000000000000000 ) ;
#89 = DIRECTION ( 'NONE',  ( 0.0000000000000000000, 0.0000000000000000000, 1.000000000000000000 ) ) ;
#90 = APPROVAL_PERSON_ORGANIZATION ( #92, #38, #32 ) ;
#91 = APPROVAL_PERSON_ORGANIZATION ( #122, #74, #132 ) ;
#92 = PERSON_AND_ORGANIZATION ( #98, #13 ) ;
#93 = CC_DESIGN_PERSON_AND_ORGANIZATION_ASSIGNMENT ( #62, #51, ( #5 ) ) ;
#94 = CARTESIAN_POINT ( 'NONE',  ( 0.0000000000000000000, 0.0000000000000000000, 1.100000000000000100 ) ) ;
#95 = ORIENTED_EDGE ( 'NONE', *, *, #156, .T. ) ;
#96 = APPROVAL_ROLE ( '' ) ;
#97 = APPLICATION_CONTEXT ( 'configuration controlled 3d designs of mechanical parts and assemblies' ) ;
#98 = PERSON ( 'UNSPECIFIED', 'UNSPECIFIED', 'UNSPECIFIED', ('UNSPECIFIED'), ('UNSPECIFIED'), ('UNSPECIFIED') ) ;
#99 = CYLINDRICAL_SURFACE ( 'NONE', #58, 15.00000000000000000 ) ;
#100 = DIRECTION ( 'NONE',  ( 1.000000000000000000, 0.0000000000000000000, 0.0000000000000000000 ) ) ;
#101 = SHAPE_DEFINITION_REPRESENTATION ( #76, #171 ) ;
#102 = VERTEX_POINT ( 'NONE', #114 ) ;
#103 = VECTOR ( 'NONE', #169, 1000.000000000000000 ) ;
#104 = CARTESIAN_POINT ( 'NONE',  ( 0.0000000000000000000, 0.0000000000000000000, 1.100000000000000100 ) ) ;
#105 = APPROVAL_STATUS ( 'not_yet_approved' ) ;
#106 = PERSON_AND_ORGANIZATION_ROLE ( 'creator' ) ;
#107 = LINE ( 'NONE', #125, #22 ) ;
#108 = FACE_OUTER_BOUND ( 'NONE', #59, .T. ) ;
#109 = CALENDAR_DATE ( 2017, 26, 4 ) ;
#110 = CARTESIAN_POINT ( 'NONE',  ( -15.00000000000000000, 0.0000000000000000000, 0.0000000000000000000 ) ) ;
#111 = DIRECTION ( 'NONE',  ( 0.0000000000000000000, 0.0000000000000000000, 1.000000000000000000 ) ) ;
#112 = VERTEX_POINT ( 'NONE', #110 ) ;
#113 = ORIENTED_EDGE ( 'NONE', *, *, #148, .F. ) ;
#114 = CARTESIAN_POINT ( 'NONE',  ( -15.00000000000000000, 0.0000000000000000000, 1.100000000000000100 ) ) ;
#115 = ORIENTED_EDGE ( 'NONE', *, *, #77, .F. ) ;
#116 = AXIS2_PLACEMENT_3D ( 'NONE', #94, #89, #82 ) ;
#117 = MECHANICAL_CONTEXT ( 'NONE', #97, 'mechanical' ) ;
#118 =( LENGTH_UNIT ( ) NAMED_UNIT ( * ) SI_UNIT ( .MILLI., .METRE. ) );
#119 = ORIENTED_EDGE ( 'NONE', *, *, #140, .F. ) ;
#120 = MANIFOLD_SOLID_BREP ( 'Boss-Extrude1', #12 ) ;
#121 = EDGE_LOOP ( 'NONE', ( #115, #113, #26, #95 ) ) ;
#122 = PERSON_AND_ORGANIZATION ( #98, #13 ) ;
#123 = CIRCLE ( 'NONE', #64, 15.00000000000000000 ) ;
#124 = ORIENTED_EDGE ( 'NONE', *, *, #141, .F. ) ;
#125 = CARTESIAN_POINT ( 'NONE',  ( -15.00000000000000000, 0.0000000000000000000, 1.100000000000000100 ) ) ;
#126 = CC_DESIGN_DATE_AND_TIME_ASSIGNMENT ( #2, #47, ( #5 ) ) ;
#127 = EDGE_LOOP ( 'NONE', ( #136, #131 ) ) ;
#128 = DIRECTION ( 'NONE',  ( -0.0000000000000000000, -0.0000000000000000000, -1.000000000000000000 ) ) ;
#129 = CIRCLE ( 'NONE', #155, 15.00000000000000000 ) ;
#130 = ORIENTED_EDGE ( 'NONE', *, *, #140, .T. ) ;
#131 = ORIENTED_EDGE ( 'NONE', *, *, #141, .T. ) ;
#132 = APPROVAL_ROLE ( '' ) ;
#133 = CARTESIAN_POINT ( 'NONE',  ( 0.0000000000000000000, 0.0000000000000000000, 1.100000000000000100 ) ) ;
#134 = LINE ( 'NONE', #16, #103 ) ;
#135 = EDGE_LOOP ( 'NONE', ( #81, #119 ) ) ;
#136 = ORIENTED_EDGE ( 'NONE', *, *, #148, .T. ) ;
#137 = EDGE_CURVE ( 'NONE', #102, #112, #107, .T. ) ;
#138 = CALENDAR_DATE ( 2017, 26, 4 ) ;
#139 = DATE_AND_TIME ( #138, #28 ) ;
#140 = EDGE_CURVE ( 'NONE', #66, #112, #129, .T. ) ;
#141 = EDGE_CURVE ( 'NONE', #80, #102, #10, .T. ) ;
#142 = APPROVAL_DATE_TIME ( #139, #38 ) ;
#143 = PERSON_AND_ORGANIZATION ( #98, #13 ) ;
#144 = COORDINATED_UNIVERSAL_TIME_OFFSET ( 5, 0, .BEHIND. ) ;
#145 = PERSON_AND_ORGANIZATION_ROLE ( 'design_supplier' ) ;
#146 = LOCAL_TIME ( 13, 35, 5.000000000000000000, #144 ) ;
#147 = CALENDAR_DATE ( 2017, 26, 4 ) ;
#148 = EDGE_CURVE ( 'NONE', #102, #80, #88, .T. ) ;
#149 =( NAMED_UNIT ( * ) SI_UNIT ( $, .STERADIAN. ) SOLID_ANGLE_UNIT ( ) );
#150 = DATE_AND_TIME ( #147, #146 ) ;
#151 = PERSON_AND_ORGANIZATION ( #98, #13 ) ;
#152 = AXIS2_PLACEMENT_3D ( 'NONE', #23, #14, #100 ) ;
#153 = APPROVAL_PERSON_ORGANIZATION ( #151, #39, #96 ) ;
#154 = AXIS2_PLACEMENT_3D ( 'NONE', #61, #111, #3 ) ;
#155 = AXIS2_PLACEMENT_3D ( 'NONE', #170, #85, #65 ) ;
#156 = EDGE_CURVE ( 'NONE', #112, #66, #123, .T. ) ;
#157 = COORDINATED_UNIVERSAL_TIME_OFFSET ( 5, 0, .BEHIND. ) ;
#158 = COORDINATED_UNIVERSAL_TIME_OFFSET ( 5, 0, .BEHIND. ) ;
#159 = LOCAL_TIME ( 13, 35, 5.000000000000000000, #157 ) ;
#160 = CALENDAR_DATE ( 2017, 26, 4 ) ;
#161 = DATE_AND_TIME ( #160, #159 ) ;
#162 = CARTESIAN_POINT ( 'NONE',  ( 0.0000000000000000000, 0.0000000000000000000, 1.100000000000000100 ) ) ;
#163 = APPROVAL_DATE_TIME ( #161, #39 ) ;
#164 = PERSON_AND_ORGANIZATION ( #98, #13 ) ;
#165 = AXIS2_PLACEMENT_3D ( 'NONE', #162, #79, #9 ) ;
#166 = PERSON_AND_ORGANIZATION ( #98, #13 ) ;
#167 = APPLICATION_PROTOCOL_DEFINITION ( 'international standard', 'config_control_design', 1994, #97 ) ;
#168 = AXIS2_PLACEMENT_3D ( 'NONE', #48, #78, #172 ) ;
#169 = DIRECTION ( 'NONE',  ( -0.0000000000000000000, -0.0000000000000000000, -1.000000000000000000 ) ) ;
#170 = CARTESIAN_POINT ( 'NONE',  ( 0.0000000000000000000, 0.0000000000000000000, 0.0000000000000000000 ) ) ;
#171 = ADVANCED_BREP_SHAPE_REPRESENTATION ( 'Web Model 83359_83364', ( #120, #152 ), #72 ) ;
#172 = DIRECTION ( 'NONE',  ( 1.000000000000000000, 0.0000000000000000000, -0.0000000000000000000 ) ) ;
#173 = UNCERTAINTY_MEASURE_WITH_UNIT (LENGTH_MEASURE( 1.000000000000000100E-005 ), #118, 'distance_accuracy_value', 'NONE');
#174 = LOCAL_TIME ( 13, 35, 5.000000000000000000, #21 ) ;
#175 = AXIS2_PLACEMENT_3D ( 'NONE', #104, #73, #41 ) ;
ENDSEC;
END-ISO-10303-21;
