ISO-10303-21;
HEADER;
FILE_DESCRIPTION (( 'STEP AP203' ),
    '1' );
FILE_NAME ('Web Model 43369_20681.step',
    '2022-03-16T14:54:04',
    ( '' ),
    ( '' ),
    'SwSTEP 2.0',
    'SolidWorks 2021',
    '' );
FILE_SCHEMA (( 'CONFIG_CONTROL_DESIGN' ));
ENDSEC;

DATA;
#1 = APPLICATION_PROTOCOL_DEFINITION ( 'international standard', 'config_control_design', 1994, #59 ) ;
#2 = APPROVAL_STATUS ( 'not_yet_approved' ) ;
#3 = AXIS2_PLACEMENT_3D ( 'NONE', #141, #72, #8 ) ;
#4 = CARTESIAN_POINT ( 'NONE',  ( 0.000000000000000000, 0.000000000000000000, 1.000000000000000000 ) ) ;
#5 = PERSON_AND_ORGANIZATION ( #147, #122 ) ;
#6 = PLANE ( 'NONE',  #80 ) ;
#7 = CC_DESIGN_PERSON_AND_ORGANIZATION_ASSIGNMENT ( #163, #153, ( #41 ) ) ;
#8 = DIRECTION ( 'NONE',  ( 1.000000000000000000, 0.000000000000000000, -0.000000000000000000 ) ) ;
#9 = ORIENTED_EDGE ( 'NONE', *, *, #104, .F. ) ;
#10 = PRODUCT ( 'Web Model 43369_20681', 'Web Model 43369_20681', '', ( #15 ) ) ;
#11 = APPROVAL_DATE_TIME ( #142, #100 ) ;
#12 = VERTEX_POINT ( 'NONE', #101 ) ;
#13 = APPROVAL_PERSON_ORGANIZATION ( #5, #100, #46 ) ;
#14 = CIRCLE ( 'NONE', #175, 12.50000000000000000 ) ;
#15 = MECHANICAL_CONTEXT ( 'NONE', #59, 'mechanical' ) ;
#16 = APPROVAL_DATE_TIME ( #136, #146 ) ;
#17 = EDGE_CURVE ( 'NONE', #20, #70, #57, .T. ) ;
#18 = LINE ( 'NONE', #28, #94 ) ;
#19 = PERSON_AND_ORGANIZATION_ROLE ( 'design_supplier' ) ;
#20 = VERTEX_POINT ( 'NONE', #47 ) ;
#21 = CIRCLE ( 'NONE', #75, 12.50000000000000000 ) ;
#22 = APPROVAL_STATUS ( 'not_yet_approved' ) ;
#23 = SHAPE_DEFINITION_REPRESENTATION ( #157, #55 ) ;
#24 = LOCAL_TIME ( 10, 54, 4.000000000000000000, #66 ) ;
#25 = DIRECTION ( 'NONE',  ( -0.000000000000000000, -0.000000000000000000, -1.000000000000000000 ) ) ;
#26 = MANIFOLD_SOLID_BREP ( 'Boss-Extrude1', #172 ) ;
#27 = CIRCLE ( 'NONE', #29, 12.50000000000000000 ) ;
#28 = CARTESIAN_POINT ( 'NONE',  ( -12.50000000000000000, 0.000000000000000000, 1.000000000000000000 ) ) ;
#29 = AXIS2_PLACEMENT_3D ( 'NONE', #133, #63, #117 ) ;
#30 = PERSON_AND_ORGANIZATION_ROLE ( 'classification_officer' ) ;
#31 = PERSON_AND_ORGANIZATION ( #147, #122 ) ;
#32 = DATE_AND_TIME ( #91, #24 ) ;
#33 = APPLICATION_PROTOCOL_DEFINITION ( 'international standard', 'config_control_design', 1994, #116 ) ;
#34 = ORIENTED_EDGE ( 'NONE', *, *, #17, .T. ) ;
#35 = ADVANCED_FACE ( 'NONE', ( #139 ), #6, .F. ) ;
#36 = DIRECTION ( 'NONE',  ( -0.000000000000000000, -0.000000000000000000, -1.000000000000000000 ) ) ;
#37 = CC_DESIGN_APPROVAL ( #100, ( #161 ) ) ;
#38 = ORIENTED_EDGE ( 'NONE', *, *, #154, .F. ) ;
#39 = FACE_OUTER_BOUND ( 'NONE', #168, .T. ) ;
#40 = CARTESIAN_POINT ( 'NONE',  ( 12.50000000000000000, 1.530808498934191521E-15, 0.000000000000000000 ) ) ;
#41 = PRODUCT_DEFINITION_FORMATION_WITH_SPECIFIED_SOURCE ( 'ANY', '', #10, .NOT_KNOWN. ) ;
#42 = APPROVAL ( #2, 'UNSPECIFIED' ) ;
#43 = CALENDAR_DATE ( 2022, 16, 3 ) ;
#44 = PERSON_AND_ORGANIZATION_ROLE ( 'creator' ) ;
#45 = APPROVAL_PERSON_ORGANIZATION ( #31, #146, #95 ) ;
#46 = APPROVAL_ROLE ( '' ) ;
#47 = CARTESIAN_POINT ( 'NONE',  ( 12.50000000000000000, 1.530808498934191521E-15, 1.000000000000000000 ) ) ;
#48 = ORIENTED_EDGE ( 'NONE', *, *, #107, .F. ) ;
#49 = ADVANCED_FACE ( 'NONE', ( #99 ), #84, .T. ) ;
#50 = ORIENTED_EDGE ( 'NONE', *, *, #135, .T. ) ;
#51 = CYLINDRICAL_SURFACE ( 'NONE', #71, 12.50000000000000000 ) ;
#52 = DIRECTION ( 'NONE',  ( -0.000000000000000000, -0.000000000000000000, -1.000000000000000000 ) ) ;
#53 = DATE_TIME_ROLE ( 'creation_date' ) ;
#54 = AXIS2_PLACEMENT_3D ( 'NONE', #174, #74, #145 ) ;
#55 = ADVANCED_BREP_SHAPE_REPRESENTATION ( 'Web Model 43369_20681', ( #26, #144 ), #121 ) ;
#56 = CIRCLE ( 'NONE', #132, 12.50000000000000000 ) ;
#57 = LINE ( 'NONE', #111, #164 ) ;
#58 = CARTESIAN_POINT ( 'NONE',  ( 0.000000000000000000, 0.000000000000000000, 0.000000000000000000 ) ) ;
#59 = APPLICATION_CONTEXT ( 'configuration controlled 3d designs of mechanical parts and assemblies' ) ;
#60 = CARTESIAN_POINT ( 'NONE',  ( 0.000000000000000000, 0.000000000000000000, 1.000000000000000000 ) ) ;
#61 = DATE_AND_TIME ( #159, #140 ) ;
#62 = UNCERTAINTY_MEASURE_WITH_UNIT (LENGTH_MEASURE( 1.000000000000000082E-05 ), #77, 'distance_accuracy_value', 'NONE');
#63 = DIRECTION ( 'NONE',  ( 0.000000000000000000, 0.000000000000000000, 1.000000000000000000 ) ) ;
#64 = EDGE_CURVE ( 'NONE', #20, #155, #56, .T. ) ;
#65 = PERSON_AND_ORGANIZATION ( #147, #122 ) ;
#66 = COORDINATED_UNIVERSAL_TIME_OFFSET ( 5, 0, .BEHIND. ) ;
#67 = DIRECTION ( 'NONE',  ( 1.000000000000000000, 0.000000000000000000, 0.000000000000000000 ) ) ;
#68 = ADVANCED_FACE ( 'NONE', ( #39 ), #86, .T. ) ;
#69 = SECURITY_CLASSIFICATION_LEVEL ( 'unclassified' ) ;
#70 = VERTEX_POINT ( 'NONE', #40 ) ;
#71 = AXIS2_PLACEMENT_3D ( 'NONE', #160, #25, #89 ) ;
#72 = DIRECTION ( 'NONE',  ( 0.000000000000000000, 0.000000000000000000, 1.000000000000000000 ) ) ;
#73 = CC_DESIGN_APPROVAL ( #42, ( #41 ) ) ;
#74 = DIRECTION ( 'NONE',  ( -0.000000000000000000, -0.000000000000000000, -1.000000000000000000 ) ) ;
#75 = AXIS2_PLACEMENT_3D ( 'NONE', #4, #125, #166 ) ;
#76 = ADVANCED_FACE ( 'NONE', ( #102 ), #51, .T. ) ;
#77 =( LENGTH_UNIT ( ) NAMED_UNIT ( * ) SI_UNIT ( .MILLI., .METRE. ) );
#78 = CC_DESIGN_DATE_AND_TIME_ASSIGNMENT ( #32, #53, ( #88 ) ) ;
#79 = APPROVAL_STATUS ( 'not_yet_approved' ) ;
#80 = AXIS2_PLACEMENT_3D ( 'NONE', #58, #113, #169 ) ;
#81 = PERSON_AND_ORGANIZATION ( #147, #122 ) ;
#82 = ORIENTED_EDGE ( 'NONE', *, *, #135, .F. ) ;
#83 = ORIENTED_EDGE ( 'NONE', *, *, #17, .F. ) ;
#84 = PLANE ( 'NONE',  #3 ) ;
#85 = CC_DESIGN_PERSON_AND_ORGANIZATION_ASSIGNMENT ( #149, #30, ( #161 ) ) ;
#86 = CYLINDRICAL_SURFACE ( 'NONE', #54, 12.50000000000000000 ) ;
#87 = ORIENTED_EDGE ( 'NONE', *, *, #107, .T. ) ;
#88 = PRODUCT_DEFINITION ( 'UNKNOWN', '', #41, #118 ) ;
#89 = DIRECTION ( 'NONE',  ( -1.000000000000000000, 0.000000000000000000, 0.000000000000000000 ) ) ;
#90 = CC_DESIGN_DATE_AND_TIME_ASSIGNMENT ( #61, #131, ( #161 ) ) ;
#91 = CALENDAR_DATE ( 2022, 16, 3 ) ;
#92 = APPROVAL_PERSON_ORGANIZATION ( #105, #42, #108 ) ;
#93 = CARTESIAN_POINT ( 'NONE',  ( 0.000000000000000000, 0.000000000000000000, 0.000000000000000000 ) ) ;
#94 = VECTOR ( 'NONE', #52, 1000.000000000000000 ) ;
#95 = APPROVAL_ROLE ( '' ) ;
#96 = COORDINATED_UNIVERSAL_TIME_OFFSET ( 5, 0, .BEHIND. ) ;
#97 = LOCAL_TIME ( 10, 54, 4.000000000000000000, #137 ) ;
#98 = CC_DESIGN_PERSON_AND_ORGANIZATION_ASSIGNMENT ( #65, #109, ( #10 ) ) ;
#99 = FACE_OUTER_BOUND ( 'NONE', #156, .T. ) ;
#100 = APPROVAL ( #22, 'UNSPECIFIED' ) ;
#101 = CARTESIAN_POINT ( 'NONE',  ( -12.50000000000000000, 0.000000000000000000, 0.000000000000000000 ) ) ;
#102 = FACE_OUTER_BOUND ( 'NONE', #130, .T. ) ;
#103 = CARTESIAN_POINT ( 'NONE',  ( -12.50000000000000000, 0.000000000000000000, 1.000000000000000000 ) ) ;
#104 = EDGE_CURVE ( 'NONE', #12, #70, #27, .T. ) ;
#105 = PERSON_AND_ORGANIZATION ( #147, #122 ) ;
#106 = LOCAL_TIME ( 10, 54, 4.000000000000000000, #115 ) ;
#107 = EDGE_CURVE ( 'NONE', #70, #12, #14, .T. ) ;
#108 = APPROVAL_ROLE ( '' ) ;
#109 = PERSON_AND_ORGANIZATION_ROLE ( 'design_owner' ) ;
#110 = ORIENTED_EDGE ( 'NONE', *, *, #154, .T. ) ;
#111 = CARTESIAN_POINT ( 'NONE',  ( 12.50000000000000000, 1.530808498934191521E-15, 1.000000000000000000 ) ) ;
#112 = CC_DESIGN_PERSON_AND_ORGANIZATION_ASSIGNMENT ( #124, #44, ( #88 ) ) ;
#113 = DIRECTION ( 'NONE',  ( 0.000000000000000000, 0.000000000000000000, 1.000000000000000000 ) ) ;
#114 = DIRECTION ( 'NONE',  ( 1.000000000000000000, 0.000000000000000000, 0.000000000000000000 ) ) ;
#115 = COORDINATED_UNIVERSAL_TIME_OFFSET ( 5, 0, .BEHIND. ) ;
#116 = APPLICATION_CONTEXT ( 'configuration controlled 3d designs of mechanical parts and assemblies' ) ;
#117 = DIRECTION ( 'NONE',  ( 1.000000000000000000, 0.000000000000000000, 0.000000000000000000 ) ) ;
#118 = DESIGN_CONTEXT ( 'detailed design', #116, 'design' ) ;
#119 = LOCAL_TIME ( 10, 54, 4.000000000000000000, #96 ) ;
#120 = CC_DESIGN_APPROVAL ( #146, ( #88 ) ) ;
#121 =( GEOMETRIC_REPRESENTATION_CONTEXT ( 3 ) GLOBAL_UNCERTAINTY_ASSIGNED_CONTEXT ( ( #62 ) ) GLOBAL_UNIT_ASSIGNED_CONTEXT ( ( #77, #151, #165 ) ) REPRESENTATION_CONTEXT ( 'NONE', 'WORKASPACE' ) );
#122 = ORGANIZATION ( 'UNSPECIFIED', 'UNSPECIFIED', '' ) ;
#123 = CALENDAR_DATE ( 2022, 16, 3 ) ;
#124 = PERSON_AND_ORGANIZATION ( #147, #122 ) ;
#125 = DIRECTION ( 'NONE',  ( 0.000000000000000000, 0.000000000000000000, 1.000000000000000000 ) ) ;
#126 = DIRECTION ( 'NONE',  ( 0.000000000000000000, 0.000000000000000000, 1.000000000000000000 ) ) ;
#127 = DIRECTION ( 'NONE',  ( 1.000000000000000000, 0.000000000000000000, 0.000000000000000000 ) ) ;
#128 = ORIENTED_EDGE ( 'NONE', *, *, #64, .F. ) ;
#129 = EDGE_LOOP ( 'NONE', ( #9, #48 ) ) ;
#130 = EDGE_LOOP ( 'NONE', ( #128, #34, #87, #82 ) ) ;
#131 = DATE_TIME_ROLE ( 'classification_date' ) ;
#132 = AXIS2_PLACEMENT_3D ( 'NONE', #60, #158, #114 ) ;
#133 = CARTESIAN_POINT ( 'NONE',  ( 0.000000000000000000, 0.000000000000000000, 0.000000000000000000 ) ) ;
#134 = CC_DESIGN_SECURITY_CLASSIFICATION ( #161, ( #41 ) ) ;
#135 = EDGE_CURVE ( 'NONE', #155, #12, #18, .T. ) ;
#136 = DATE_AND_TIME ( #123, #97 ) ;
#137 = COORDINATED_UNIVERSAL_TIME_OFFSET ( 5, 0, .BEHIND. ) ;
#138 = APPROVAL_DATE_TIME ( #152, #42 ) ;
#139 = FACE_OUTER_BOUND ( 'NONE', #129, .T. ) ;
#140 = LOCAL_TIME ( 10, 54, 4.000000000000000000, #143 ) ;
#141 = CARTESIAN_POINT ( 'NONE',  ( 0.000000000000000000, 0.000000000000000000, 1.000000000000000000 ) ) ;
#142 = DATE_AND_TIME ( #170, #106 ) ;
#143 = COORDINATED_UNIVERSAL_TIME_OFFSET ( 5, 0, .BEHIND. ) ;
#144 = AXIS2_PLACEMENT_3D ( 'NONE', #93, #162, #67 ) ;
#145 = DIRECTION ( 'NONE',  ( -1.000000000000000000, 0.000000000000000000, 0.000000000000000000 ) ) ;
#146 = APPROVAL ( #79, 'UNSPECIFIED' ) ;
#147 = PERSON ( 'UNSPECIFIED', 'UNSPECIFIED', 'UNSPECIFIED', ('UNSPECIFIED'), ('UNSPECIFIED'), ('UNSPECIFIED') ) ;
#148 = CARTESIAN_POINT ( 'NONE',  ( 0.000000000000000000, 0.000000000000000000, 0.000000000000000000 ) ) ;
#149 = PERSON_AND_ORGANIZATION ( #147, #122 ) ;
#150 = CC_DESIGN_PERSON_AND_ORGANIZATION_ASSIGNMENT ( #81, #19, ( #41 ) ) ;
#151 =( NAMED_UNIT ( * ) PLANE_ANGLE_UNIT ( ) SI_UNIT ( $, .RADIAN. ) );
#152 = DATE_AND_TIME ( #43, #119 ) ;
#153 = PERSON_AND_ORGANIZATION_ROLE ( 'creator' ) ;
#154 = EDGE_CURVE ( 'NONE', #155, #20, #21, .T. ) ;
#155 = VERTEX_POINT ( 'NONE', #103 ) ;
#156 = EDGE_LOOP ( 'NONE', ( #110, #167 ) ) ;
#157 = PRODUCT_DEFINITION_SHAPE ( 'NONE', 'NONE',  #88 ) ;
#158 = DIRECTION ( 'NONE',  ( 0.000000000000000000, 0.000000000000000000, 1.000000000000000000 ) ) ;
#159 = CALENDAR_DATE ( 2022, 16, 3 ) ;
#160 = CARTESIAN_POINT ( 'NONE',  ( 0.000000000000000000, 0.000000000000000000, 1.000000000000000000 ) ) ;
#161 = SECURITY_CLASSIFICATION ( '', '', #69 ) ;
#162 = DIRECTION ( 'NONE',  ( 0.000000000000000000, 0.000000000000000000, 1.000000000000000000 ) ) ;
#163 = PERSON_AND_ORGANIZATION ( #147, #122 ) ;
#164 = VECTOR ( 'NONE', #36, 1000.000000000000000 ) ;
#165 =( NAMED_UNIT ( * ) SI_UNIT ( $, .STERADIAN. ) SOLID_ANGLE_UNIT ( ) );
#166 = DIRECTION ( 'NONE',  ( 1.000000000000000000, 0.000000000000000000, 0.000000000000000000 ) ) ;
#167 = ORIENTED_EDGE ( 'NONE', *, *, #64, .T. ) ;
#168 = EDGE_LOOP ( 'NONE', ( #83, #38, #50, #173 ) ) ;
#169 = DIRECTION ( 'NONE',  ( 1.000000000000000000, 0.000000000000000000, -0.000000000000000000 ) ) ;
#170 = CALENDAR_DATE ( 2022, 16, 3 ) ;
#171 = PRODUCT_RELATED_PRODUCT_CATEGORY ( 'detail', '', ( #10 ) ) ;
#172 = CLOSED_SHELL ( 'NONE', ( #76, #68, #49, #35 ) ) ;
#173 = ORIENTED_EDGE ( 'NONE', *, *, #104, .T. ) ;
#174 = CARTESIAN_POINT ( 'NONE',  ( 0.000000000000000000, 0.000000000000000000, 1.000000000000000000 ) ) ;
#175 = AXIS2_PLACEMENT_3D ( 'NONE', #148, #126, #127 ) ;
ENDSEC;
END-ISO-10303-21;
