ISO-10303-21;
HEADER;
FILE_DESCRIPTION (( 'STEP AP203' ),
    '1' );
FILE_NAME ('Web Model 15425_15425.step',
    '2020-07-31T18:46:34',
    ( '' ),
    ( '' ),
    'SwSTEP 2.0',
    'SolidWorks 2018',
    '' );
FILE_SCHEMA (( 'CONFIG_CONTROL_DESIGN' ));
ENDSEC;

DATA;
#1 = VECTOR ( 'NONE', #61, 1000.000000000000000 ) ;
#2 = ORIENTED_EDGE ( 'NONE', *, *, #57, .T. ) ;
#3 = DATE_AND_TIME ( #72, #105 ) ;
#4 = DIRECTION ( 'NONE',  ( 1.000000000000000000, 0.0000000000000000000, 0.0000000000000000000 ) ) ;
#5 = DIRECTION ( 'NONE',  ( 0.0000000000000000000, 0.0000000000000000000, 1.000000000000000000 ) ) ;
#6 = CARTESIAN_POINT ( 'NONE',  ( 0.0000000000000000000, 0.0000000000000000000, -2.000000000000000000 ) ) ;
#7 = CC_DESIGN_SECURITY_CLASSIFICATION ( #25, ( #68 ) ) ;
#8 = FACE_OUTER_BOUND ( 'NONE', #117, .T. ) ;
#9 = ORIENTED_EDGE ( 'NONE', *, *, #41, .T. ) ;
#10 = DIRECTION ( 'NONE',  ( 0.0000000000000000000, 0.0000000000000000000, 1.000000000000000000 ) ) ;
#11 = DESIGN_CONTEXT ( 'detailed design', #94, 'design' ) ;
#12 = PERSON_AND_ORGANIZATION ( #16, #170 ) ;
#13 = VERTEX_POINT ( 'NONE', #93 ) ;
#14 = CIRCLE ( 'NONE', #152, 12.69999999999999929 ) ;
#15 = APPROVAL ( #128, 'UNSPECIFIED' ) ;
#16 = PERSON ( 'UNSPECIFIED', 'UNSPECIFIED', 'UNSPECIFIED', ('UNSPECIFIED'), ('UNSPECIFIED'), ('UNSPECIFIED') ) ;
#17 = APPLICATION_PROTOCOL_DEFINITION ( 'international standard', 'config_control_design', 1994, #94 ) ;
#18 = EDGE_CURVE ( 'NONE', #49, #104, #23, .T. ) ;
#19 = DIRECTION ( 'NONE',  ( 1.000000000000000000, 0.0000000000000000000, 0.0000000000000000000 ) ) ;
#20 = CALENDAR_DATE ( 2020, 31, 7 ) ;
#21 = ADVANCED_FACE ( 'NONE', ( #84 ), #83, .F. ) ;
#22 = DIRECTION ( 'NONE',  ( 1.000000000000000000, 0.0000000000000000000, -0.0000000000000000000 ) ) ;
#23 = CIRCLE ( 'NONE', #103, 12.69999999999999929 ) ;
#24 = PERSON_AND_ORGANIZATION ( #16, #170 ) ;
#25 = SECURITY_CLASSIFICATION ( '', '', #172 ) ;
#26 = LOCAL_TIME ( 14, 46, 34.00000000000000000, #111 ) ;
#27 = ORIENTED_EDGE ( 'NONE', *, *, #144, .F. ) ;
#28 = ADVANCED_BREP_SHAPE_REPRESENTATION ( 'Web Model 15425_15425', ( #127, #160 ), #135 ) ;
#29 = AXIS2_PLACEMENT_3D ( 'NONE', #6, #110, #140 ) ;
#30 = APPROVAL_PERSON_ORGANIZATION ( #24, #115, #151 ) ;
#31 = EDGE_LOOP ( 'NONE', ( #141, #71 ) ) ;
#32 = DIRECTION ( 'NONE',  ( -0.0000000000000000000, -0.0000000000000000000, -1.000000000000000000 ) ) ;
#33 = DIRECTION ( 'NONE',  ( -0.0000000000000000000, -0.0000000000000000000, -1.000000000000000000 ) ) ;
#34 = PERSON_AND_ORGANIZATION_ROLE ( 'design_owner' ) ;
#35 = CARTESIAN_POINT ( 'NONE',  ( 0.0000000000000000000, 0.0000000000000000000, 2.000000000000000000 ) ) ;
#36 = CALENDAR_DATE ( 2020, 31, 7 ) ;
#37 = ORIENTED_EDGE ( 'NONE', *, *, #74, .T. ) ;
#38 = DATE_TIME_ROLE ( 'classification_date' ) ;
#39 = LOCAL_TIME ( 14, 46, 34.00000000000000000, #134 ) ;
#40 = VERTEX_POINT ( 'NONE', #78 ) ;
#41 = EDGE_CURVE ( 'NONE', #40, #104, #173, .T. ) ;
#42 = DATE_AND_TIME ( #20, #39 ) ;
#43 = PRODUCT_DEFINITION ( 'UNKNOWN', '', #68, #11 ) ;
#44 = CIRCLE ( 'NONE', #90, 12.69999999999999929 ) ;
#45 = CC_DESIGN_PERSON_AND_ORGANIZATION_ASSIGNMENT ( #82, #167, ( #43 ) ) ;
#46 = CC_DESIGN_PERSON_AND_ORGANIZATION_ASSIGNMENT ( #153, #157, ( #25 ) ) ;
#47 = CYLINDRICAL_SURFACE ( 'NONE', #129, 12.69999999999999929 ) ;
#48 = CARTESIAN_POINT ( 'NONE',  ( 0.0000000000000000000, 0.0000000000000000000, 2.000000000000000000 ) ) ;
#49 = VERTEX_POINT ( 'NONE', #62 ) ;
#50 = DIRECTION ( 'NONE',  ( -0.0000000000000000000, -0.0000000000000000000, -1.000000000000000000 ) ) ;
#51 = PRODUCT_RELATED_PRODUCT_CATEGORY ( 'detail', '', ( #121 ) ) ;
#52 = ADVANCED_FACE ( 'NONE', ( #8 ), #47, .T. ) ;
#53 = PERSON_AND_ORGANIZATION_ROLE ( 'creator' ) ;
#54 = APPROVAL_ROLE ( '' ) ;
#55 = APPROVAL_PERSON_ORGANIZATION ( #73, #15, #54 ) ;
#56 = PRODUCT_DEFINITION_SHAPE ( 'NONE', 'NONE',  #43 ) ;
#57 = EDGE_CURVE ( 'NONE', #13, #49, #139, .T. ) ;
#58 = CC_DESIGN_APPROVAL ( #115, ( #43 ) ) ;
#59 = PLANE ( 'NONE',  #75 ) ;
#60 = PERSON_AND_ORGANIZATION ( #16, #170 ) ;
#61 = DIRECTION ( 'NONE',  ( -0.0000000000000000000, -0.0000000000000000000, -1.000000000000000000 ) ) ;
#62 = CARTESIAN_POINT ( 'NONE',  ( -12.69999999999999929, 0.0000000000000000000, -2.000000000000000000 ) ) ;
#63 = DIRECTION ( 'NONE',  ( 0.0000000000000000000, 0.0000000000000000000, 1.000000000000000000 ) ) ;
#64 = PERSON_AND_ORGANIZATION ( #16, #170 ) ;
#65 = CIRCLE ( 'NONE', #29, 12.69999999999999929 ) ;
#66 = ORIENTED_EDGE ( 'NONE', *, *, #144, .T. ) ;
#67 = SHAPE_DEFINITION_REPRESENTATION ( #56, #28 ) ;
#68 = PRODUCT_DEFINITION_FORMATION_WITH_SPECIFIED_SOURCE ( 'ANY', '', #121, .NOT_KNOWN. ) ;
#69 = CARTESIAN_POINT ( 'NONE',  ( 0.0000000000000000000, 0.0000000000000000000, 2.000000000000000000 ) ) ;
#70 = DIRECTION ( 'NONE',  ( 0.0000000000000000000, 0.0000000000000000000, 1.000000000000000000 ) ) ;
#71 = ORIENTED_EDGE ( 'NONE', *, *, #86, .F. ) ;
#72 = CALENDAR_DATE ( 2020, 31, 7 ) ;
#73 = PERSON_AND_ORGANIZATION ( #16, #170 ) ;
#74 = EDGE_CURVE ( 'NONE', #13, #40, #44, .T. ) ;
#75 = AXIS2_PLACEMENT_3D ( 'NONE', #35, #10, #150 ) ;
#76 = CC_DESIGN_APPROVAL ( #15, ( #68 ) ) ;
#77 = DATE_AND_TIME ( #89, #165 ) ;
#78 = CARTESIAN_POINT ( 'NONE',  ( 12.69999999999999929, 1.555301434917138433E-15, 2.000000000000000000 ) ) ;
#79 = APPROVAL ( #130, 'UNSPECIFIED' ) ;
#80 = CARTESIAN_POINT ( 'NONE',  ( 0.0000000000000000000, 0.0000000000000000000, 0.0000000000000000000 ) ) ;
#81 =( NAMED_UNIT ( * ) PLANE_ANGLE_UNIT ( ) SI_UNIT ( $, .RADIAN. ) );
#82 = PERSON_AND_ORGANIZATION ( #16, #170 ) ;
#83 = PLANE ( 'NONE',  #87 ) ;
#84 = FACE_OUTER_BOUND ( 'NONE', #31, .T. ) ;
#85 = DIRECTION ( 'NONE',  ( -1.000000000000000000, 0.0000000000000000000, 0.0000000000000000000 ) ) ;
#86 = EDGE_CURVE ( 'NONE', #104, #49, #65, .T. ) ;
#87 = AXIS2_PLACEMENT_3D ( 'NONE', #113, #112, #22 ) ;
#88 = CC_DESIGN_APPROVAL ( #79, ( #25 ) ) ;
#89 = CALENDAR_DATE ( 2020, 31, 7 ) ;
#90 = AXIS2_PLACEMENT_3D ( 'NONE', #155, #70, #109 ) ;
#91 = COORDINATED_UNIVERSAL_TIME_OFFSET ( 5, 0, .BEHIND. ) ;
#92 = CLOSED_SHELL ( 'NONE', ( #100, #52, #168, #21 ) ) ;
#93 = CARTESIAN_POINT ( 'NONE',  ( -12.69999999999999929, 0.0000000000000000000, 2.000000000000000000 ) ) ;
#94 = APPLICATION_CONTEXT ( 'configuration controlled 3d designs of mechanical parts and assemblies' ) ;
#95 = COORDINATED_UNIVERSAL_TIME_OFFSET ( 5, 0, .BEHIND. ) ;
#96 = MECHANICAL_CONTEXT ( 'NONE', #123, 'mechanical' ) ;
#97 = CARTESIAN_POINT ( 'NONE',  ( 0.0000000000000000000, 0.0000000000000000000, -2.000000000000000000 ) ) ;
#98 = DIRECTION ( 'NONE',  ( 0.0000000000000000000, 0.0000000000000000000, 1.000000000000000000 ) ) ;
#99 = CYLINDRICAL_SURFACE ( 'NONE', #171, 12.69999999999999929 ) ;
#100 = ADVANCED_FACE ( 'NONE', ( #122 ), #99, .T. ) ;
#101 = ORIENTED_EDGE ( 'NONE', *, *, #86, .T. ) ;
#102 = DATE_TIME_ROLE ( 'creation_date' ) ;
#103 = AXIS2_PLACEMENT_3D ( 'NONE', #97, #63, #19 ) ;
#104 = VERTEX_POINT ( 'NONE', #137 ) ;
#105 = LOCAL_TIME ( 14, 46, 34.00000000000000000, #175 ) ;
#106 = CC_DESIGN_PERSON_AND_ORGANIZATION_ASSIGNMENT ( #60, #34, ( #121 ) ) ;
#107 = EDGE_LOOP ( 'NONE', ( #27, #9, #101, #148 ) ) ;
#108 = CARTESIAN_POINT ( 'NONE',  ( 0.0000000000000000000, 0.0000000000000000000, 2.000000000000000000 ) ) ;
#109 = DIRECTION ( 'NONE',  ( 1.000000000000000000, 0.0000000000000000000, 0.0000000000000000000 ) ) ;
#110 = DIRECTION ( 'NONE',  ( 0.0000000000000000000, 0.0000000000000000000, 1.000000000000000000 ) ) ;
#111 = COORDINATED_UNIVERSAL_TIME_OFFSET ( 5, 0, .BEHIND. ) ;
#112 = DIRECTION ( 'NONE',  ( 0.0000000000000000000, 0.0000000000000000000, 1.000000000000000000 ) ) ;
#113 = CARTESIAN_POINT ( 'NONE',  ( 0.0000000000000000000, 0.0000000000000000000, -2.000000000000000000 ) ) ;
#114 = PERSON_AND_ORGANIZATION_ROLE ( 'design_supplier' ) ;
#115 = APPROVAL ( #138, 'UNSPECIFIED' ) ;
#116 = DATE_AND_TIME ( #147, #26 ) ;
#117 = EDGE_LOOP ( 'NONE', ( #163, #124, #2, #154 ) ) ;
#118 = CC_DESIGN_PERSON_AND_ORGANIZATION_ASSIGNMENT ( #64, #53, ( #68 ) ) ;
#119 = LOCAL_TIME ( 14, 46, 34.00000000000000000, #95 ) ;
#120 = DIRECTION ( 'NONE',  ( -1.000000000000000000, 0.0000000000000000000, 0.0000000000000000000 ) ) ;
#121 = PRODUCT ( 'Web Model 15425_15425', 'Web Model 15425_15425', '', ( #96 ) ) ;
#122 = FACE_OUTER_BOUND ( 'NONE', #107, .T. ) ;
#123 = APPLICATION_CONTEXT ( 'configuration controlled 3d designs of mechanical parts and assemblies' ) ;
#124 = ORIENTED_EDGE ( 'NONE', *, *, #74, .F. ) ;
#125 = CC_DESIGN_DATE_AND_TIME_ASSIGNMENT ( #116, #38, ( #25 ) ) ;
#126 = DIRECTION ( 'NONE',  ( 1.000000000000000000, 0.0000000000000000000, 0.0000000000000000000 ) ) ;
#127 = MANIFOLD_SOLID_BREP ( 'Boss-Extrude1', #92 ) ;
#128 = APPROVAL_STATUS ( 'not_yet_approved' ) ;
#129 = AXIS2_PLACEMENT_3D ( 'NONE', #108, #32, #120 ) ;
#130 = APPROVAL_STATUS ( 'not_yet_approved' ) ;
#131 = APPROVAL_PERSON_ORGANIZATION ( #162, #79, #158 ) ;
#132 = APPROVAL_DATE_TIME ( #161, #115 ) ;
#133 = EDGE_LOOP ( 'NONE', ( #37, #66 ) ) ;
#134 = COORDINATED_UNIVERSAL_TIME_OFFSET ( 5, 0, .BEHIND. ) ;
#135 =( GEOMETRIC_REPRESENTATION_CONTEXT ( 3 ) GLOBAL_UNCERTAINTY_ASSIGNED_CONTEXT ( ( #145 ) ) GLOBAL_UNIT_ASSIGNED_CONTEXT ( ( #166, #81, #142 ) ) REPRESENTATION_CONTEXT ( 'NONE', 'WORKASPACE' ) );
#136 = APPROVAL_DATE_TIME ( #77, #15 ) ;
#137 = CARTESIAN_POINT ( 'NONE',  ( 12.69999999999999929, 1.555301434917138433E-15, -2.000000000000000000 ) ) ;
#138 = APPROVAL_STATUS ( 'not_yet_approved' ) ;
#139 = LINE ( 'NONE', #169, #159 ) ;
#140 = DIRECTION ( 'NONE',  ( 1.000000000000000000, 0.0000000000000000000, 0.0000000000000000000 ) ) ;
#141 = ORIENTED_EDGE ( 'NONE', *, *, #18, .F. ) ;
#142 =( NAMED_UNIT ( * ) SI_UNIT ( $, .STERADIAN. ) SOLID_ANGLE_UNIT ( ) );
#143 = APPROVAL_DATE_TIME ( #3, #79 ) ;
#144 = EDGE_CURVE ( 'NONE', #40, #13, #14, .T. ) ;
#145 = UNCERTAINTY_MEASURE_WITH_UNIT (LENGTH_MEASURE( 1.000000000000000082E-05 ), #166, 'distance_accuracy_value', 'NONE');
#146 = CC_DESIGN_PERSON_AND_ORGANIZATION_ASSIGNMENT ( #12, #114, ( #68 ) ) ;
#147 = CALENDAR_DATE ( 2020, 31, 7 ) ;
#148 = ORIENTED_EDGE ( 'NONE', *, *, #57, .F. ) ;
#149 = CC_DESIGN_DATE_AND_TIME_ASSIGNMENT ( #42, #102, ( #43 ) ) ;
#150 = DIRECTION ( 'NONE',  ( 1.000000000000000000, 0.0000000000000000000, -0.0000000000000000000 ) ) ;
#151 = APPROVAL_ROLE ( '' ) ;
#152 = AXIS2_PLACEMENT_3D ( 'NONE', #48, #98, #126 ) ;
#153 = PERSON_AND_ORGANIZATION ( #16, #170 ) ;
#154 = ORIENTED_EDGE ( 'NONE', *, *, #18, .T. ) ;
#155 = CARTESIAN_POINT ( 'NONE',  ( 0.0000000000000000000, 0.0000000000000000000, 2.000000000000000000 ) ) ;
#156 = CARTESIAN_POINT ( 'NONE',  ( 12.69999999999999929, 1.555301434917138433E-15, 2.000000000000000000 ) ) ;
#157 = PERSON_AND_ORGANIZATION_ROLE ( 'classification_officer' ) ;
#158 = APPROVAL_ROLE ( '' ) ;
#159 = VECTOR ( 'NONE', #50, 1000.000000000000000 ) ;
#160 = AXIS2_PLACEMENT_3D ( 'NONE', #80, #5, #4 ) ;
#161 = DATE_AND_TIME ( #36, #119 ) ;
#162 = PERSON_AND_ORGANIZATION ( #16, #170 ) ;
#163 = ORIENTED_EDGE ( 'NONE', *, *, #41, .F. ) ;
#164 = APPLICATION_PROTOCOL_DEFINITION ( 'international standard', 'config_control_design', 1994, #123 ) ;
#165 = LOCAL_TIME ( 14, 46, 34.00000000000000000, #91 ) ;
#166 =( LENGTH_UNIT ( ) NAMED_UNIT ( * ) SI_UNIT ( .MILLI., .METRE. ) );
#167 = PERSON_AND_ORGANIZATION_ROLE ( 'creator' ) ;
#168 = ADVANCED_FACE ( 'NONE', ( #174 ), #59, .T. ) ;
#169 = CARTESIAN_POINT ( 'NONE',  ( -12.69999999999999929, 0.0000000000000000000, 2.000000000000000000 ) ) ;
#170 = ORGANIZATION ( 'UNSPECIFIED', 'UNSPECIFIED', '' ) ;
#171 = AXIS2_PLACEMENT_3D ( 'NONE', #69, #33, #85 ) ;
#172 = SECURITY_CLASSIFICATION_LEVEL ( 'unclassified' ) ;
#173 = LINE ( 'NONE', #156, #1 ) ;
#174 = FACE_OUTER_BOUND ( 'NONE', #133, .T. ) ;
#175 = COORDINATED_UNIVERSAL_TIME_OFFSET ( 5, 0, .BEHIND. ) ;
ENDSEC;
END-ISO-10303-21;
