ISO-10303-21;
HEADER;
FILE_DESCRIPTION (( 'STEP AP203' ),
    '1' );
FILE_NAME ('Web Model 68523.STEP',
    '2017-02-01T13:27:22',
    ( '' ),
    ( '' ),
    'SwSTEP 2.0',
    'SolidWorks 2016',
    '' );
FILE_SCHEMA (( 'CONFIG_CONTROL_DESIGN' ));
ENDSEC;

DATA;
#1 = DIRECTION ( 'NONE',  ( -0.0000000000000000000, -1.000000000000000000, -0.0000000000000000000 ) ) ;
#2 = CARTESIAN_POINT ( 'NONE',  ( 1.530808498934191500E-015, 1.000000000000000000, 12.50000000000000000 ) ) ;
#3 = LOCAL_TIME ( 8, 27, 22.00000000000000000, #9 ) ;
#4 = PLANE ( 'NONE',  #35 ) ;
#5 = CC_DESIGN_SECURITY_CLASSIFICATION ( #10, ( #121 ) ) ;
#6 = PERSON_AND_ORGANIZATION_ROLE ( 'design_owner' ) ;
#7 = APPROVAL_STATUS ( 'not_yet_approved' ) ;
#8 = DIRECTION ( 'NONE',  ( 1.000000000000000000, 0.0000000000000000000, 0.0000000000000000000 ) ) ;
#9 = COORDINATED_UNIVERSAL_TIME_OFFSET ( 5, 0, .BEHIND. ) ;
#10 = SECURITY_CLASSIFICATION ( '', '', #23 ) ;
#11 = CARTESIAN_POINT ( 'NONE',  ( 0.0000000000000000000, 1.000000000000000000, 0.0000000000000000000 ) ) ;
#12 = APPROVAL_PERSON_ORGANIZATION ( #159, #129, #143 ) ;
#13 = PRODUCT_RELATED_PRODUCT_CATEGORY ( 'detail', '', ( #69 ) ) ;
#14 = LINE ( 'NONE', #31, #71 ) ;
#15 = CC_DESIGN_APPROVAL ( #129, ( #121 ) ) ;
#16 = CARTESIAN_POINT ( 'NONE',  ( 0.0000000000000000000, 1.000000000000000000, 0.0000000000000000000 ) ) ;
#17 = DIRECTION ( 'NONE',  ( 0.0000000000000000000, 1.000000000000000000, 0.0000000000000000000 ) ) ;
#18 = ORIENTED_EDGE ( 'NONE', *, *, #174, .F. ) ;
#19 = DIRECTION ( 'NONE',  ( 0.0000000000000000000, -0.0000000000000000000, 1.000000000000000000 ) ) ;
#20 = LOCAL_TIME ( 8, 27, 22.00000000000000000, #94 ) ;
#21 = DATE_AND_TIME ( #175, #81 ) ;
#22 = APPROVAL ( #7, 'UNSPECIFIED' ) ;
#23 = SECURITY_CLASSIFICATION_LEVEL ( 'unclassified' ) ;
#24 = PERSON_AND_ORGANIZATION_ROLE ( 'creator' ) ;
#25 = DIRECTION ( 'NONE',  ( 0.0000000000000000000, 0.0000000000000000000, -1.000000000000000000 ) ) ;
#26 = PERSON_AND_ORGANIZATION ( #167, #95 ) ;
#27 = EDGE_CURVE ( 'NONE', #51, #123, #110, .T. ) ;
#28 = ORIENTED_EDGE ( 'NONE', *, *, #65, .T. ) ;
#29 = APPROVAL_PERSON_ORGANIZATION ( #52, #22, #39 ) ;
#30 = DIRECTION ( 'NONE',  ( 0.0000000000000000000, 0.0000000000000000000, -1.000000000000000000 ) ) ;
#31 = CARTESIAN_POINT ( 'NONE',  ( 1.530808498934191500E-015, 1.000000000000000000, 12.50000000000000000 ) ) ;
#32 = CARTESIAN_POINT ( 'NONE',  ( 1.530808498934191500E-015, 0.0000000000000000000, 12.50000000000000000 ) ) ;
#33 = ORIENTED_EDGE ( 'NONE', *, *, #130, .T. ) ;
#34 = DIRECTION ( 'NONE',  ( 0.0000000000000000000, 0.0000000000000000000, 1.000000000000000000 ) ) ;
#35 = AXIS2_PLACEMENT_3D ( 'NONE', #16, #99, #19 ) ;
#36 = APPROVAL_STATUS ( 'not_yet_approved' ) ;
#37 = PERSON_AND_ORGANIZATION_ROLE ( 'design_supplier' ) ;
#38 = ORIENTED_EDGE ( 'NONE', *, *, #174, .T. ) ;
#39 = APPROVAL_ROLE ( '' ) ;
#40 = AXIS2_PLACEMENT_3D ( 'NONE', #155, #134, #8 ) ;
#41 = APPLICATION_PROTOCOL_DEFINITION ( 'international standard', 'config_control_design', 1994, #172 ) ;
#42 = ORIENTED_EDGE ( 'NONE', *, *, #131, .T. ) ;
#43 = CC_DESIGN_APPROVAL ( #22, ( #49 ) ) ;
#44 = DESIGN_CONTEXT ( 'detailed design', #172, 'design' ) ;
#45 = APPROVAL_DATE_TIME ( #83, #22 ) ;
#46 = EDGE_LOOP ( 'NONE', ( #150, #42 ) ) ;
#47 = CARTESIAN_POINT ( 'NONE',  ( 0.0000000000000000000, 1.000000000000000000, 0.0000000000000000000 ) ) ;
#48 = CARTESIAN_POINT ( 'NONE',  ( 0.0000000000000000000, 1.000000000000000000, -12.50000000000000000 ) ) ;
#49 = PRODUCT_DEFINITION ( 'UNKNOWN', '', #121, #44 ) ;
#50 = CIRCLE ( 'NONE', #139, 12.50000000000000000 ) ;
#51 = VERTEX_POINT ( 'NONE', #48 ) ;
#52 = PERSON_AND_ORGANIZATION ( #167, #95 ) ;
#53 = MECHANICAL_CONTEXT ( 'NONE', #54, 'mechanical' ) ;
#54 = APPLICATION_CONTEXT ( 'configuration controlled 3d designs of mechanical parts and assemblies' ) ;
#55 = APPROVAL_STATUS ( 'not_yet_approved' ) ;
#56 = AXIS2_PLACEMENT_3D ( 'NONE', #11, #117, #108 ) ;
#57 = APPROVAL_PERSON_ORGANIZATION ( #157, #90, #73 ) ;
#58 = ORIENTED_EDGE ( 'NONE', *, *, #101, .F. ) ;
#59 = EDGE_LOOP ( 'NONE', ( #84, #28, #38, #146 ) ) ;
#60 = AXIS2_PLACEMENT_3D ( 'NONE', #47, #137, #25 ) ;
#61 = CALENDAR_DATE ( 2017, 1, 2 ) ;
#62 = PLANE ( 'NONE',  #76 ) ;
#63 =( GEOMETRIC_REPRESENTATION_CONTEXT ( 3 ) GLOBAL_UNCERTAINTY_ASSIGNED_CONTEXT ( ( #154 ) ) GLOBAL_UNIT_ASSIGNED_CONTEXT ( ( #171, #92, #72 ) ) REPRESENTATION_CONTEXT ( 'NONE', 'WORKASPACE' ) );
#64 = PERSON_AND_ORGANIZATION ( #167, #95 ) ;
#65 = EDGE_CURVE ( 'NONE', #74, #102, #14, .T. ) ;
#66 = ADVANCED_FACE ( 'NONE', ( #151 ), #86, .T. ) ;
#67 = CLOSED_SHELL ( 'NONE', ( #127, #66, #68, #79 ) ) ;
#68 = ADVANCED_FACE ( 'NONE', ( #75 ), #4, .T. ) ;
#69 = PRODUCT ( 'Web Model 68523', 'Web Model 68523', '', ( #53 ) ) ;
#70 = CC_DESIGN_PERSON_AND_ORGANIZATION_ASSIGNMENT ( #141, #119, ( #121 ) ) ;
#71 = VECTOR ( 'NONE', #163, 1000.000000000000000 ) ;
#72 =( NAMED_UNIT ( * ) SI_UNIT ( $, .STERADIAN. ) SOLID_ANGLE_UNIT ( ) );
#73 = APPROVAL_ROLE ( '' ) ;
#74 = VERTEX_POINT ( 'NONE', #2 ) ;
#75 = FACE_OUTER_BOUND ( 'NONE', #46, .T. ) ;
#76 = AXIS2_PLACEMENT_3D ( 'NONE', #98, #147, #148 ) ;
#77 = COORDINATED_UNIVERSAL_TIME_OFFSET ( 5, 0, .BEHIND. ) ;
#78 = EDGE_LOOP ( 'NONE', ( #132, #18 ) ) ;
#79 = ADVANCED_FACE ( 'NONE', ( #115 ), #62, .F. ) ;
#80 = CC_DESIGN_PERSON_AND_ORGANIZATION_ASSIGNMENT ( #26, #37, ( #121 ) ) ;
#81 = LOCAL_TIME ( 8, 27, 22.00000000000000000, #77 ) ;
#82 = APPLICATION_PROTOCOL_DEFINITION ( 'international standard', 'config_control_design', 1994, #54 ) ;
#83 = DATE_AND_TIME ( #144, #96 ) ;
#84 = ORIENTED_EDGE ( 'NONE', *, *, #131, .F. ) ;
#85 = APPROVAL_DATE_TIME ( #116, #129 ) ;
#86 = CYLINDRICAL_SURFACE ( 'NONE', #160, 12.50000000000000000 ) ;
#87 = LOCAL_TIME ( 8, 27, 22.00000000000000000, #126 ) ;
#88 = EDGE_LOOP ( 'NONE', ( #168, #58, #113, #33 ) ) ;
#89 = CARTESIAN_POINT ( 'NONE',  ( 0.0000000000000000000, 0.0000000000000000000, -12.50000000000000000 ) ) ;
#90 = APPROVAL ( #36, 'UNSPECIFIED' ) ;
#91 = DATE_AND_TIME ( #104, #20 ) ;
#92 =( NAMED_UNIT ( * ) PLANE_ANGLE_UNIT ( ) SI_UNIT ( $, .RADIAN. ) );
#93 = CC_DESIGN_PERSON_AND_ORGANIZATION_ASSIGNMENT ( #112, #24, ( #49 ) ) ;
#94 = COORDINATED_UNIVERSAL_TIME_OFFSET ( 5, 0, .BEHIND. ) ;
#95 = ORGANIZATION ( 'UNSPECIFIED', 'UNSPECIFIED', '' ) ;
#96 = LOCAL_TIME ( 8, 27, 22.00000000000000000, #165 ) ;
#97 = CALENDAR_DATE ( 2017, 1, 2 ) ;
#98 = CARTESIAN_POINT ( 'NONE',  ( 0.0000000000000000000, 0.0000000000000000000, 0.0000000000000000000 ) ) ;
#99 = DIRECTION ( 'NONE',  ( 0.0000000000000000000, 1.000000000000000000, 0.0000000000000000000 ) ) ;
#100 = CC_DESIGN_DATE_AND_TIME_ASSIGNMENT ( #133, #103, ( #49 ) ) ;
#101 = EDGE_CURVE ( 'NONE', #51, #74, #125, .T. ) ;
#102 = VERTEX_POINT ( 'NONE', #32 ) ;
#103 = DATE_TIME_ROLE ( 'creation_date' ) ;
#104 = CALENDAR_DATE ( 2017, 1, 2 ) ;
#105 = CARTESIAN_POINT ( 'NONE',  ( 0.0000000000000000000, 0.0000000000000000000, 0.0000000000000000000 ) ) ;
#106 = DIRECTION ( 'NONE',  ( 0.0000000000000000000, 0.0000000000000000000, 1.000000000000000000 ) ) ;
#107 = ADVANCED_BREP_SHAPE_REPRESENTATION ( 'Web Model 68523', ( #164, #40 ), #63 ) ;
#108 = DIRECTION ( 'NONE',  ( 0.0000000000000000000, 0.0000000000000000000, 1.000000000000000000 ) ) ;
#109 = PERSON_AND_ORGANIZATION_ROLE ( 'classification_officer' ) ;
#110 = LINE ( 'NONE', #136, #128 ) ;
#111 = SHAPE_DEFINITION_REPRESENTATION ( #138, #107 ) ;
#112 = PERSON_AND_ORGANIZATION ( #167, #95 ) ;
#113 = ORIENTED_EDGE ( 'NONE', *, *, #27, .T. ) ;
#114 = CARTESIAN_POINT ( 'NONE',  ( 0.0000000000000000000, 1.000000000000000000, 0.0000000000000000000 ) ) ;
#115 = FACE_OUTER_BOUND ( 'NONE', #78, .T. ) ;
#116 = DATE_AND_TIME ( #97, #87 ) ;
#117 = DIRECTION ( 'NONE',  ( 0.0000000000000000000, 1.000000000000000000, 0.0000000000000000000 ) ) ;
#118 = DATE_TIME_ROLE ( 'classification_date' ) ;
#119 = PERSON_AND_ORGANIZATION_ROLE ( 'creator' ) ;
#120 = DIRECTION ( 'NONE',  ( 0.0000000000000000000, 1.000000000000000000, 0.0000000000000000000 ) ) ;
#121 = PRODUCT_DEFINITION_FORMATION_WITH_SPECIFIED_SOURCE ( 'ANY', '', #69, .NOT_KNOWN. ) ;
#122 = FACE_OUTER_BOUND ( 'NONE', #59, .T. ) ;
#123 = VERTEX_POINT ( 'NONE', #89 ) ;
#124 = APPROVAL_DATE_TIME ( #21, #90 ) ;
#125 = CIRCLE ( 'NONE', #169, 12.50000000000000000 ) ;
#126 = COORDINATED_UNIVERSAL_TIME_OFFSET ( 5, 0, .BEHIND. ) ;
#127 = ADVANCED_FACE ( 'NONE', ( #122 ), #161, .T. ) ;
#128 = VECTOR ( 'NONE', #1, 1000.000000000000000 ) ;
#129 = APPROVAL ( #55, 'UNSPECIFIED' ) ;
#130 = EDGE_CURVE ( 'NONE', #123, #102, #173, .T. ) ;
#131 = EDGE_CURVE ( 'NONE', #74, #51, #153, .T. ) ;
#132 = ORIENTED_EDGE ( 'NONE', *, *, #130, .F. ) ;
#133 = DATE_AND_TIME ( #61, #3 ) ;
#134 = DIRECTION ( 'NONE',  ( 0.0000000000000000000, 0.0000000000000000000, 1.000000000000000000 ) ) ;
#135 = AXIS2_PLACEMENT_3D ( 'NONE', #140, #170, #106 ) ;
#136 = CARTESIAN_POINT ( 'NONE',  ( 0.0000000000000000000, 1.000000000000000000, -12.50000000000000000 ) ) ;
#137 = DIRECTION ( 'NONE',  ( -0.0000000000000000000, -1.000000000000000000, -0.0000000000000000000 ) ) ;
#138 = PRODUCT_DEFINITION_SHAPE ( 'NONE', 'NONE',  #49 ) ;
#139 = AXIS2_PLACEMENT_3D ( 'NONE', #105, #120, #156 ) ;
#140 = CARTESIAN_POINT ( 'NONE',  ( 0.0000000000000000000, 0.0000000000000000000, 0.0000000000000000000 ) ) ;
#141 = PERSON_AND_ORGANIZATION ( #167, #95 ) ;
#142 = CC_DESIGN_PERSON_AND_ORGANIZATION_ASSIGNMENT ( #152, #109, ( #10 ) ) ;
#143 = APPROVAL_ROLE ( '' ) ;
#144 = CALENDAR_DATE ( 2017, 1, 2 ) ;
#145 = CC_DESIGN_PERSON_AND_ORGANIZATION_ASSIGNMENT ( #64, #6, ( #69 ) ) ;
#146 = ORIENTED_EDGE ( 'NONE', *, *, #27, .F. ) ;
#147 = DIRECTION ( 'NONE',  ( 0.0000000000000000000, 1.000000000000000000, 0.0000000000000000000 ) ) ;
#148 = DIRECTION ( 'NONE',  ( 0.0000000000000000000, -0.0000000000000000000, 1.000000000000000000 ) ) ;
#149 = DIRECTION ( 'NONE',  ( -0.0000000000000000000, -1.000000000000000000, -0.0000000000000000000 ) ) ;
#150 = ORIENTED_EDGE ( 'NONE', *, *, #101, .T. ) ;
#151 = FACE_OUTER_BOUND ( 'NONE', #88, .T. ) ;
#152 = PERSON_AND_ORGANIZATION ( #167, #95 ) ;
#153 = CIRCLE ( 'NONE', #56, 12.50000000000000000 ) ;
#154 = UNCERTAINTY_MEASURE_WITH_UNIT (LENGTH_MEASURE( 1.000000000000000100E-005 ), #171, 'distance_accuracy_value', 'NONE');
#155 = CARTESIAN_POINT ( 'NONE',  ( 0.0000000000000000000, 0.0000000000000000000, 0.0000000000000000000 ) ) ;
#156 = DIRECTION ( 'NONE',  ( 0.0000000000000000000, 0.0000000000000000000, 1.000000000000000000 ) ) ;
#157 = PERSON_AND_ORGANIZATION ( #167, #95 ) ;
#158 = CC_DESIGN_DATE_AND_TIME_ASSIGNMENT ( #91, #118, ( #10 ) ) ;
#159 = PERSON_AND_ORGANIZATION ( #167, #95 ) ;
#160 = AXIS2_PLACEMENT_3D ( 'NONE', #114, #149, #30 ) ;
#161 = CYLINDRICAL_SURFACE ( 'NONE', #60, 12.50000000000000000 ) ;
#162 = CARTESIAN_POINT ( 'NONE',  ( 0.0000000000000000000, 1.000000000000000000, 0.0000000000000000000 ) ) ;
#163 = DIRECTION ( 'NONE',  ( -0.0000000000000000000, -1.000000000000000000, -0.0000000000000000000 ) ) ;
#164 = MANIFOLD_SOLID_BREP ( 'Extrude1', #67 ) ;
#165 = COORDINATED_UNIVERSAL_TIME_OFFSET ( 5, 0, .BEHIND. ) ;
#166 = CC_DESIGN_APPROVAL ( #90, ( #10 ) ) ;
#167 = PERSON ( 'UNSPECIFIED', 'UNSPECIFIED', 'UNSPECIFIED', ('UNSPECIFIED'), ('UNSPECIFIED'), ('UNSPECIFIED') ) ;
#168 = ORIENTED_EDGE ( 'NONE', *, *, #65, .F. ) ;
#169 = AXIS2_PLACEMENT_3D ( 'NONE', #162, #17, #34 ) ;
#170 = DIRECTION ( 'NONE',  ( 0.0000000000000000000, 1.000000000000000000, 0.0000000000000000000 ) ) ;
#171 =( LENGTH_UNIT ( ) NAMED_UNIT ( * ) SI_UNIT ( .MILLI., .METRE. ) );
#172 = APPLICATION_CONTEXT ( 'configuration controlled 3d designs of mechanical parts and assemblies' ) ;
#173 = CIRCLE ( 'NONE', #135, 12.50000000000000000 ) ;
#174 = EDGE_CURVE ( 'NONE', #102, #123, #50, .T. ) ;
#175 = CALENDAR_DATE ( 2017, 1, 2 ) ;
ENDSEC;
END-ISO-10303-21;
