ISO-10303-21;
HEADER;
FILE_DESCRIPTION (( 'STEP AP203' ),
    '1' );
FILE_NAME ('24997-E0W.STEP',
    '2012-09-28T16:20:26',
    ( 'Admin' ),
    ( 'Thorlabs, Inc.' ),
    'SwSTEP 2.0',
    'SolidWorks 2011',
    '' );
FILE_SCHEMA (( 'CONFIG_CONTROL_DESIGN' ));
ENDSEC;

DATA;
#1 = DIRECTION ( 'NONE',  ( 1.000000000000000000, 0.0000000000000000000, 0.0000000000000000000 ) ) ;
#2 = CARTESIAN_POINT ( 'NONE',  ( 0.0000000000000000000, 0.0000000000000000000, 0.0000000000000000000 ) ) ;
#3 = AXIS2_PLACEMENT_3D ( 'NONE', #2, #301, #1 ) ;
#4 = CIRCLE ( 'NONE', #73, 12.70000000000000100 ) ;
#5 = DIRECTION ( 'NONE',  ( 0.7071067811865431300, 0.0000000000000000000, 0.7071067811865519000 ) ) ;
#6 = AXIS2_PLACEMENT_3D ( 'NONE', #48, #68, #67 ) ;
#7 = CARTESIAN_POINT ( 'NONE',  ( 12.55857864376269000, 0.0000000000000000000, -3.540000000000001400 ) ) ;
#8 = VECTOR ( 'NONE', #88, 1000.000000000000000 ) ;
#9 = LINE ( 'NONE', #16, #8 ) ;
#10 = FACE_OUTER_BOUND ( 'NONE', #265, .T. ) ;
#11 = VECTOR ( 'NONE', #5, 1000.000000000000000 ) ;
#12 = LINE ( 'NONE', #17, #11 ) ;
#13 = DIRECTION ( 'NONE',  ( -1.000000000000000000, 1.224646799147353200E-016, 0.0000000000000000000 ) ) ;
#14 = DIRECTION ( 'NONE',  ( 1.224646799147353200E-016, 1.000000000000000000, 0.0000000000000000000 ) ) ;
#15 = AXIS2_PLACEMENT_3D ( 'NONE', #22, #14, #13 ) ;
#16 = CARTESIAN_POINT ( 'NONE',  ( -12.55857864376269000, 1.537982313792428700E-015, -3.540000000000001400 ) ) ;
#17 = CARTESIAN_POINT ( 'NONE',  ( 12.55857864376269000, 0.0000000000000000000, -3.540000000000001400 ) ) ;
#18 = CARTESIAN_POINT ( 'NONE',  ( 0.0000000000000000000, 0.0000000000000000000, -14.85999902161147900 ) ) ;
#19 = AXIS2_PLACEMENT_3D ( 'NONE', #18, #27, #26 ) ;
#20 = DIRECTION ( 'NONE',  ( 1.000000000000000000, 0.0000000000000000000, 0.0000000000000000000 ) ) ;
#21 = DIRECTION ( 'NONE',  ( -0.0000000000000000000, -0.0000000000000000000, 1.000000000000000000 ) ) ;
#22 = CARTESIAN_POINT ( 'NONE',  ( -0.006000391355407211400, 7.348360067030889900E-019, -14.85999902161147900 ) ) ;
#23 = TOROIDAL_SURFACE ( 'NONE', #19, 0.006000391355407211400, 18.39999999999999900 ) ;
#24 = CIRCLE ( 'NONE', #15, 18.39999999999999900 ) ;
#25 = CARTESIAN_POINT ( 'NONE',  ( 0.0000000000000000000, 0.0000000000000000000, -14.85999902161147900 ) ) ;
#26 = DIRECTION ( 'NONE',  ( 1.000000000000000000, 0.0000000000000000000, 0.0000000000000000000 ) ) ;
#27 = DIRECTION ( 'NONE',  ( -0.0000000000000000000, -0.0000000000000000000, 1.000000000000000000 ) ) ;
#28 = CARTESIAN_POINT ( 'NONE',  ( -12.55857864376269000, 1.546641874354783600E-015, -3.540000000000001400 ) ) ;
#29 = AXIS2_PLACEMENT_3D ( 'NONE', #72, #71, #70 ) ;
#30 = FACE_OUTER_BOUND ( 'NONE', #295, .T. ) ;
#31 = CARTESIAN_POINT ( 'NONE',  ( 0.0000000000000000000, 0.0000000000000000000, -3.540000000000001400 ) ) ;
#32 = DIRECTION ( 'NONE',  ( -0.0000000000000000000, -0.0000000000000000000, 1.000000000000000000 ) ) ;
#33 = FACE_OUTER_BOUND ( 'NONE', #230, .T. ) ;
#34 = DIRECTION ( 'NONE',  ( 1.000000000000000000, 0.0000000000000000000, 0.0000000000000000000 ) ) ;
#35 = DIRECTION ( 'NONE',  ( -0.0000000000000000000, -0.0000000000000000000, 1.000000000000000000 ) ) ;
#36 = FACE_OUTER_BOUND ( 'NONE', #213, .T. ) ;
#37 = DIRECTION ( 'NONE',  ( -1.000000000000000000, 0.0000000000000000000, 0.0000000000000000000 ) ) ;
#38 = DIRECTION ( 'NONE',  ( 0.0000000000000000000, 0.0000000000000000000, -1.000000000000000000 ) ) ;
#39 = AXIS2_PLACEMENT_3D ( 'NONE', #57, #38, #37 ) ;
#40 = CIRCLE ( 'NONE', #125, 12.55857864376269400 ) ;
#41 = CARTESIAN_POINT ( 'NONE',  ( 12.69999999999999900, 0.0000000000000000000, -1.548064691731229700 ) ) ;
#42 = AXIS2_PLACEMENT_3D ( 'NONE', #119, #75, #74 ) ;
#43 = DIRECTION ( 'NONE',  ( -0.0000000000000000000, -0.0000000000000000000, 1.000000000000000000 ) ) ;
#44 = VECTOR ( 'NONE', #43, 1000.000000000000000 ) ;
#45 = LINE ( 'NONE', #46, #44 ) ;
#46 = CARTESIAN_POINT ( 'NONE',  ( -12.69999999999999900, 1.555301434917138400E-015, 35.17507380289622200 ) ) ;
#47 = CONICAL_SURFACE ( 'NONE', #120, 12.69999999999999900, 0.7853981633974482800 ) ;
#48 = CARTESIAN_POINT ( 'NONE',  ( 0.0000000000000000000, 0.0000000000000000000, 35.17507380289622200 ) ) ;
#49 = PLANE ( 'NONE',  #61 ) ;
#50 = CONICAL_SURFACE ( 'NONE', #87, 12.55857864376269000, 0.7853981633974420600 ) ;
#51 = FACE_OUTER_BOUND ( 'NONE', #233, .T. ) ;
#52 = CONICAL_SURFACE ( 'NONE', #39, 12.69999999999999900, 0.7853981633974482800 ) ;
#53 = FACE_OUTER_BOUND ( 'NONE', #254, .T. ) ;
#54 = CARTESIAN_POINT ( 'NONE',  ( 0.0000000000000000000, 0.0000000000000000000, 3.540000000000000000 ) ) ;
#55 = DIRECTION ( 'NONE',  ( 1.000000000000000000, 0.0000000000000000000, 0.0000000000000000000 ) ) ;
#56 = DIRECTION ( 'NONE',  ( 1.000000000000000000, 0.0000000000000000000, 0.0000000000000000000 ) ) ;
#57 = CARTESIAN_POINT ( 'NONE',  ( 0.0000000000000000000, 0.0000000000000000000, -1.548064691731229700 ) ) ;
#58 = DIRECTION ( 'NONE',  ( 1.000000000000000000, 0.0000000000000000000, 0.0000000000000000000 ) ) ;
#59 = DIRECTION ( 'NONE',  ( 0.0000000000000000000, -0.0000000000000000000, 1.000000000000000000 ) ) ;
#60 = CARTESIAN_POINT ( 'NONE',  ( 0.0000000000000000000, 0.0000000000000000000, -3.540000000000000000 ) ) ;
#61 = AXIS2_PLACEMENT_3D ( 'NONE', #60, #59, #58 ) ;
#62 = FACE_OUTER_BOUND ( 'NONE', #238, .T. ) ;
#63 = DIRECTION ( 'NONE',  ( 1.000000000000000000, 0.0000000000000000000, 0.0000000000000000000 ) ) ;
#64 = DIRECTION ( 'NONE',  ( -0.0000000000000000000, -0.0000000000000000000, 1.000000000000000000 ) ) ;
#65 = CARTESIAN_POINT ( 'NONE',  ( 0.0000000000000000000, 0.0000000000000000000, -3.398578643762688100 ) ) ;
#66 = CYLINDRICAL_SURFACE ( 'NONE', #6, 12.69999999999999900 ) ;
#67 = DIRECTION ( 'NONE',  ( 1.000000000000000000, 0.0000000000000000000, 0.0000000000000000000 ) ) ;
#68 = DIRECTION ( 'NONE',  ( -0.0000000000000000000, -0.0000000000000000000, 1.000000000000000000 ) ) ;
#69 = LINE ( 'NONE', #140, #139 ) ;
#70 = DIRECTION ( 'NONE',  ( 1.000000000000000000, 0.0000000000000000000, 0.0000000000000000000 ) ) ;
#71 = DIRECTION ( 'NONE',  ( -0.0000000000000000000, -0.0000000000000000000, 1.000000000000000000 ) ) ;
#72 = CARTESIAN_POINT ( 'NONE',  ( 0.0000000000000000000, 0.0000000000000000000, -3.540000000000001400 ) ) ;
#73 = AXIS2_PLACEMENT_3D ( 'NONE', #65, #64, #63 ) ;
#74 = DIRECTION ( 'NONE',  ( 1.000000000000000000, 0.0000000000000000000, 0.0000000000000000000 ) ) ;
#75 = DIRECTION ( 'NONE',  ( -0.0000000000000000000, -0.0000000000000000000, 1.000000000000000000 ) ) ;
#76 = VECTOR ( 'NONE', #115, 1000.000000000000000 ) ;
#77 = LINE ( 'NONE', #117, #76 ) ;
#78 = DIRECTION ( 'NONE',  ( 1.000000000000000000, 0.0000000000000000000, 0.0000000000000000000 ) ) ;
#79 = AXIS2_PLACEMENT_3D ( 'NONE', #82, #32, #78 ) ;
#80 = CIRCLE ( 'NONE', #94, 12.55857864376269000 ) ;
#81 = CIRCLE ( 'NONE', #106, 12.69999999999999900 ) ;
#82 = CARTESIAN_POINT ( 'NONE',  ( 0.0000000000000000000, 0.0000000000000000000, -1.406643335493923400 ) ) ;
#83 = DIRECTION ( 'NONE',  ( -0.0000000000000000000, -0.0000000000000000000, 1.000000000000000000 ) ) ;
#84 = CARTESIAN_POINT ( 'NONE',  ( 0.0000000000000000000, 0.0000000000000000000, -3.398578643762688100 ) ) ;
#85 = AXIS2_PLACEMENT_3D ( 'NONE', #84, #83, #56 ) ;
#86 = CIRCLE ( 'NONE', #85, 12.70000000000000100 ) ;
#87 = AXIS2_PLACEMENT_3D ( 'NONE', #31, #35, #34 ) ;
#88 = DIRECTION ( 'NONE',  ( -0.7071067811865431300, 8.659560562354878600E-017, 0.7071067811865519000 ) ) ;
#89 = AXIS2_PLACEMENT_3D ( 'NONE', #25, #21, #20 ) ;
#90 = CARTESIAN_POINT ( 'NONE',  ( 0.0000000000000000000, 0.0000000000000000000, 35.17507380289622200 ) ) ;
#91 = DIRECTION ( 'NONE',  ( 1.000000000000000000, 0.0000000000000000000, 0.0000000000000000000 ) ) ;
#92 = DIRECTION ( 'NONE',  ( -0.0000000000000000000, -0.0000000000000000000, 1.000000000000000000 ) ) ;
#93 = CARTESIAN_POINT ( 'NONE',  ( 0.0000000000000000000, 0.0000000000000000000, -3.540000000000001400 ) ) ;
#94 = AXIS2_PLACEMENT_3D ( 'NONE', #93, #92, #91 ) ;
#95 = CYLINDRICAL_SURFACE ( 'NONE', #102, 12.69999999999999900 ) ;
#96 = DIRECTION ( 'NONE',  ( -0.0000000000000000000, -0.0000000000000000000, 1.000000000000000000 ) ) ;
#97 = TOROIDAL_SURFACE ( 'NONE', #89, 0.006000391355407211400, 18.39999999999999900 ) ;
#98 = DIRECTION ( 'NONE',  ( 0.0000000000000000000, 0.0000000000000000000, -1.000000000000000000 ) ) ;
#99 = DIRECTION ( 'NONE',  ( 0.0000000000000000000, -1.000000000000000000, 0.0000000000000000000 ) ) ;
#100 = CARTESIAN_POINT ( 'NONE',  ( 0.006000391355407211400, 0.0000000000000000000, -14.85999902161147900 ) ) ;
#101 = AXIS2_PLACEMENT_3D ( 'NONE', #100, #99, #98 ) ;
#102 = AXIS2_PLACEMENT_3D ( 'NONE', #90, #96, #55 ) ;
#103 = DIRECTION ( 'NONE',  ( 1.000000000000000000, 0.0000000000000000000, 0.0000000000000000000 ) ) ;
#104 = DIRECTION ( 'NONE',  ( -0.0000000000000000000, -0.0000000000000000000, 1.000000000000000000 ) ) ;
#105 = CARTESIAN_POINT ( 'NONE',  ( 0.0000000000000000000, 0.0000000000000000000, -1.548064691731229700 ) ) ;
#106 = AXIS2_PLACEMENT_3D ( 'NONE', #105, #104, #103 ) ;
#107 = CIRCLE ( 'NONE', #29, 12.55857864376269000 ) ;
#108 = CIRCLE ( 'NONE', #101, 18.39999999999999500 ) ;
#109 = DIRECTION ( 'NONE',  ( 1.000000000000000000, 0.0000000000000000000, 0.0000000000000000000 ) ) ;
#110 = DIRECTION ( 'NONE',  ( -0.0000000000000000000, -0.0000000000000000000, 1.000000000000000000 ) ) ;
#111 = CIRCLE ( 'NONE', #42, 12.69999999999999900 ) ;
#112 = CARTESIAN_POINT ( 'NONE',  ( 12.70000000000000100, 0.0000000000000000000, -3.398578643762688100 ) ) ;
#113 = CARTESIAN_POINT ( 'NONE',  ( -12.70000000000000100, 1.555301434917138600E-015, -3.398578643762688100 ) ) ;
#114 = AXIS2_PLACEMENT_3D ( 'NONE', #126, #110, #109 ) ;
#115 = DIRECTION ( 'NONE',  ( -0.7071067811865474600, 0.0000000000000000000, -0.7071067811865475700 ) ) ;
#116 = DIRECTION ( 'NONE',  ( -1.000000000000000000, 0.0000000000000000000, 0.0000000000000000000 ) ) ;
#117 = CARTESIAN_POINT ( 'NONE',  ( -12.69999999999999900, 0.0000000000000000000, -1.548064691731229700 ) ) ;
#118 = CONICAL_SURFACE ( 'NONE', #114, 12.55857864376269000, 0.7853981633974420600 ) ;
#119 = CARTESIAN_POINT ( 'NONE',  ( 0.0000000000000000000, 0.0000000000000000000, -1.548064691731229700 ) ) ;
#120 = AXIS2_PLACEMENT_3D ( 'NONE', #129, #130, #116 ) ;
#121 = FACE_OUTER_BOUND ( 'NONE', #300, .T. ) ;
#122 = DIRECTION ( 'NONE',  ( 1.000000000000000000, 0.0000000000000000000, 0.0000000000000000000 ) ) ;
#123 = DIRECTION ( 'NONE',  ( -0.0000000000000000000, -0.0000000000000000000, 1.000000000000000000 ) ) ;
#124 = CARTESIAN_POINT ( 'NONE',  ( 0.0000000000000000000, 0.0000000000000000000, -1.406643335493923400 ) ) ;
#125 = AXIS2_PLACEMENT_3D ( 'NONE', #124, #123, #122 ) ;
#126 = CARTESIAN_POINT ( 'NONE',  ( 0.0000000000000000000, 0.0000000000000000000, -3.540000000000001400 ) ) ;
#127 = FACE_OUTER_BOUND ( 'NONE', #280, .T. ) ;
#128 = CIRCLE ( 'NONE', #79, 12.55857864376269400 ) ;
#129 = CARTESIAN_POINT ( 'NONE',  ( 0.0000000000000000000, 0.0000000000000000000, -1.548064691731229700 ) ) ;
#130 = DIRECTION ( 'NONE',  ( 0.0000000000000000000, 0.0000000000000000000, -1.000000000000000000 ) ) ;
#131 = CARTESIAN_POINT ( 'NONE',  ( -12.69999999999999900, 1.555301434917138400E-015, -1.548064691731229700 ) ) ;
#132 = DIRECTION ( 'NONE',  ( 0.7071067811865474600, 8.659560562354931600E-017, -0.7071067811865475700 ) ) ;
#133 = VECTOR ( 'NONE', #132, 1000.000000000000000 ) ;
#134 = LINE ( 'NONE', #137, #133 ) ;
#135 = CARTESIAN_POINT ( 'NONE',  ( -12.55857864376269500, 1.537982313792429300E-015, -1.406643335493924300 ) ) ;
#136 = CARTESIAN_POINT ( 'NONE',  ( 12.55857864376269500, 0.0000000000000000000, -1.406643335493924300 ) ) ;
#137 = CARTESIAN_POINT ( 'NONE',  ( 12.69999999999999900, 1.555301434917138400E-015, -1.548064691731229700 ) ) ;
#138 = DIRECTION ( 'NONE',  ( -0.0000000000000000000, -0.0000000000000000000, 1.000000000000000000 ) ) ;
#139 = VECTOR ( 'NONE', #138, 1000.000000000000000 ) ;
#140 = CARTESIAN_POINT ( 'NONE',  ( 12.69999999999999900, 0.0000000000000000000, 35.17507380289622200 ) ) ;
#141 = PRODUCT_RELATED_PRODUCT_CATEGORY ( 'detail', '', ( #250 ) ) ;
#142 = CC_DESIGN_SECURITY_CLASSIFICATION ( #158, ( #176 ) ) ;
#143 = APPROVAL_PERSON_ORGANIZATION ( #155, #197, #211 ) ;
#144 = LOCAL_TIME ( 12, 20, 26.00000000000000000, #145 ) ;
#145 = COORDINATED_UNIVERSAL_TIME_OFFSET ( 5, 0, .BEHIND. ) ;
#146 = CC_DESIGN_PERSON_AND_ORGANIZATION_ASSIGNMENT ( #157, #156, ( #158 ) ) ;
#147 = SHAPE_DEFINITION_REPRESENTATION ( #148, #245 ) ;
#148 = PRODUCT_DEFINITION_SHAPE ( 'NONE', 'NONE',  #198 ) ;
#149 = APPROVAL_STATUS ( 'not_yet_approved' ) ;
#150 = PERSON_AND_ORGANIZATION ( #248, #162 ) ;
#151 = CC_DESIGN_DATE_AND_TIME_ASSIGNMENT ( #153, #152, ( #158 ) ) ;
#152 = DATE_TIME_ROLE ( 'classification_date' ) ;
#153 = DATE_AND_TIME ( #154, #144 ) ;
#154 = CALENDAR_DATE ( 2012, 28, 9 ) ;
#155 = PERSON_AND_ORGANIZATION ( #248, #162 ) ;
#156 = PERSON_AND_ORGANIZATION_ROLE ( 'classification_officer' ) ;
#157 = PERSON_AND_ORGANIZATION ( #248, #162 ) ;
#158 = SECURITY_CLASSIFICATION ( '', '', #167 ) ;
#159 = CC_DESIGN_PERSON_AND_ORGANIZATION_ASSIGNMENT ( #160, #187, ( #250 ) ) ;
#160 = PERSON_AND_ORGANIZATION ( #248, #162 ) ;
#161 = DESIGN_CONTEXT ( 'detailed design', #203, 'design' ) ;
#162 = ORGANIZATION ( 'UNSPECIFIED', 'UNSPECIFIED', '' ) ;
#163 = COORDINATED_UNIVERSAL_TIME_OFFSET ( 5, 0, .BEHIND. ) ;
#164 = APPROVAL_PERSON_ORGANIZATION ( #150, #166, #165 ) ;
#165 = APPROVAL_ROLE ( '' ) ;
#166 = APPROVAL ( #149, 'UNSPECIFIED' ) ;
#167 = SECURITY_CLASSIFICATION_LEVEL ( 'unclassified' ) ;
#168 = CC_DESIGN_PERSON_AND_ORGANIZATION_ASSIGNMENT ( #170, #169, ( #176 ) ) ;
#169 = PERSON_AND_ORGANIZATION_ROLE ( 'design_supplier' ) ;
#170 = PERSON_AND_ORGANIZATION ( #248, #162 ) ;
#171 = PERSON_AND_ORGANIZATION_ROLE ( 'creator' ) ;
#172 = APPROVAL_PERSON_ORGANIZATION ( #195, #174, #173 ) ;
#173 = APPROVAL_ROLE ( '' ) ;
#174 = APPROVAL ( #194, 'UNSPECIFIED' ) ;
#175 = PERSON_AND_ORGANIZATION ( #248, #162 ) ;
#176 = PRODUCT_DEFINITION_FORMATION_WITH_SPECIFIED_SOURCE ( 'ANY', '', #250, .NOT_KNOWN. ) ;
#177 = APPLICATION_PROTOCOL_DEFINITION ( 'international standard', 'config_control_design', 1994, #203 ) ;
#178 = PERSON_AND_ORGANIZATION_ROLE ( 'creator' ) ;
#179 = CALENDAR_DATE ( 2012, 28, 9 ) ;
#180 = CC_DESIGN_APPROVAL ( #197, ( #198 ) ) ;
#181 = APPROVAL_DATE_TIME ( #202, #197 ) ;
#182 = CC_DESIGN_APPROVAL ( #166, ( #158 ) ) ;
#183 = APPROVAL_DATE_TIME ( #184, #166 ) ;
#184 = DATE_AND_TIME ( #185, #186 ) ;
#185 = CALENDAR_DATE ( 2012, 28, 9 ) ;
#186 = LOCAL_TIME ( 12, 20, 26.00000000000000000, #163 ) ;
#187 = PERSON_AND_ORGANIZATION_ROLE ( 'design_owner' ) ;
#188 = CC_DESIGN_APPROVAL ( #174, ( #176 ) ) ;
#189 = APPROVAL_DATE_TIME ( #190, #174 ) ;
#190 = DATE_AND_TIME ( #205, #206 ) ;
#191 = DATE_TIME_ROLE ( 'creation_date' ) ;
#192 = DATE_AND_TIME ( #209, #193 ) ;
#193 = LOCAL_TIME ( 12, 20, 26.00000000000000000, #210 ) ;
#194 = APPROVAL_STATUS ( 'not_yet_approved' ) ;
#195 = PERSON_AND_ORGANIZATION ( #248, #162 ) ;
#196 = CC_DESIGN_DATE_AND_TIME_ASSIGNMENT ( #192, #191, ( #198 ) ) ;
#197 = APPROVAL ( #204, 'UNSPECIFIED' ) ;
#198 = PRODUCT_DEFINITION ( 'UNKNOWN', '', #176, #161 ) ;
#199 = COORDINATED_UNIVERSAL_TIME_OFFSET ( 5, 0, .BEHIND. ) ;
#200 = CC_DESIGN_PERSON_AND_ORGANIZATION_ASSIGNMENT ( #201, #178, ( #198 ) ) ;
#201 = PERSON_AND_ORGANIZATION ( #248, #162 ) ;
#202 = DATE_AND_TIME ( #179, #212 ) ;
#203 = APPLICATION_CONTEXT ( 'configuration controlled 3d designs of mechanical parts and assemblies' ) ;
#204 = APPROVAL_STATUS ( 'not_yet_approved' ) ;
#205 = CALENDAR_DATE ( 2012, 28, 9 ) ;
#206 = LOCAL_TIME ( 12, 20, 26.00000000000000000, #207 ) ;
#207 = COORDINATED_UNIVERSAL_TIME_OFFSET ( 5, 0, .BEHIND. ) ;
#208 = CC_DESIGN_PERSON_AND_ORGANIZATION_ASSIGNMENT ( #175, #171, ( #176 ) ) ;
#209 = CALENDAR_DATE ( 2012, 28, 9 ) ;
#210 = COORDINATED_UNIVERSAL_TIME_OFFSET ( 5, 0, .BEHIND. ) ;
#211 = APPROVAL_ROLE ( '' ) ;
#212 = LOCAL_TIME ( 12, 20, 26.00000000000000000, #199 ) ;
#213 = EDGE_LOOP ( 'NONE', ( #255, #243, #257 ) ) ;
#214 = ORIENTED_EDGE ( 'NONE', *, *, #239, .F. ) ;
#215 = ORIENTED_EDGE ( 'NONE', *, *, #217, .F. ) ;
#216 = ORIENTED_EDGE ( 'NONE', *, *, #217, .T. ) ;
#217 = EDGE_CURVE ( 'NONE', #290, #291, #86, .T. ) ;
#218 = ORIENTED_EDGE ( 'NONE', *, *, #264, .T. ) ;
#219 = ADVANCED_FACE ( 'NONE', ( #51 ), #52, .T. ) ;
#220 = ORIENTED_EDGE ( 'NONE', *, *, #240, .F. ) ;
#221 = ORIENTED_EDGE ( 'NONE', *, *, #231, .F. ) ;
#222 = VERTEX_POINT ( 'NONE', #54 ) ;
#223 = ADVANCED_FACE ( 'NONE', ( #53 ), #50, .T. ) ;
#224 = EDGE_CURVE ( 'NONE', #284, #283, #128, .T. ) ;
#225 = ORIENTED_EDGE ( 'NONE', *, *, #273, .F. ) ;
#226 = ADVANCED_FACE ( 'NONE', ( #33 ), #49, .F. ) ;
#227 = ORIENTED_EDGE ( 'NONE', *, *, #282, .F. ) ;
#228 = ORIENTED_EDGE ( 'NONE', *, *, #278, .T. ) ;
#229 = ORIENTED_EDGE ( 'NONE', *, *, #240, .T. ) ;
#230 = EDGE_LOOP ( 'NONE', ( #225, #220 ) ) ;
#231 = EDGE_CURVE ( 'NONE', #285, #281, #81, .T. ) ;
#232 = ORIENTED_EDGE ( 'NONE', *, *, #231, .T. ) ;
#233 = EDGE_LOOP ( 'NONE', ( #227, #256, #237, #232 ) ) ;
#234 =( GEOMETRIC_REPRESENTATION_CONTEXT ( 3 ) GLOBAL_UNCERTAINTY_ASSIGNED_CONTEXT ( ( #242 ) ) GLOBAL_UNIT_ASSIGNED_CONTEXT ( ( #268, #252, #288 ) ) REPRESENTATION_CONTEXT ( 'NONE', 'WORKASPACE' ) );
#235 = ORIENTED_EDGE ( 'NONE', *, *, #276, .F. ) ;
#236 = CLOSED_SHELL ( 'NONE', ( #287, #275, #289, #266, #258, #226, #223, #241, #219 ) ) ;
#237 = ORIENTED_EDGE ( 'NONE', *, *, #293, .T. ) ;
#238 = EDGE_LOOP ( 'NONE', ( #235, #216, #228, #221 ) ) ;
#239 = EDGE_CURVE ( 'NONE', #283, #222, #108, .T. ) ;
#240 = EDGE_CURVE ( 'NONE', #272, #271, #80, .T. ) ;
#241 = ADVANCED_FACE ( 'NONE', ( #62 ), #95, .T. ) ;
#242 = UNCERTAINTY_MEASURE_WITH_UNIT (LENGTH_MEASURE( 1.000000000000000100E-005 ), #268, 'distance_accuracy_value', 'NONE');
#243 = ORIENTED_EDGE ( 'NONE', *, *, #224, .T. ) ;
#244 = ORIENTED_EDGE ( 'NONE', *, *, #260, .F. ) ;
#245 = ADVANCED_BREP_SHAPE_REPRESENTATION ( '24997-E0W', ( #253, #3 ), #234 ) ;
#246 = APPLICATION_PROTOCOL_DEFINITION ( 'international standard', 'config_control_design', 1994, #247 ) ;
#247 = APPLICATION_CONTEXT ( 'configuration controlled 3d designs of mechanical parts and assemblies' ) ;
#248 = PERSON ( 'UNSPECIFIED', 'UNSPECIFIED', 'UNSPECIFIED', ('UNSPECIFIED'), ('UNSPECIFIED'), ('UNSPECIFIED') ) ;
#249 = MECHANICAL_CONTEXT ( 'NONE', #247, 'mechanical' ) ;
#250 = PRODUCT ( '24997-E0W', '24997-E0W', '', ( #249 ) ) ;
#251 = ORIENTED_EDGE ( 'NONE', *, *, #282, .T. ) ;
#252 =( NAMED_UNIT ( * ) PLANE_ANGLE_UNIT ( ) SI_UNIT ( $, .RADIAN. ) );
#253 = MANIFOLD_SOLID_BREP ( '24997-001-1-solid1', #236 ) ;
#254 = EDGE_LOOP ( 'NONE', ( #244, #229, #218, #215 ) ) ;
#255 = ORIENTED_EDGE ( 'NONE', *, *, #259, .F. ) ;
#256 = ORIENTED_EDGE ( 'NONE', *, *, #224, .F. ) ;
#257 = ORIENTED_EDGE ( 'NONE', *, *, #239, .T. ) ;
#258 = ADVANCED_FACE ( 'NONE', ( #36 ), #97, .T. ) ;
#259 = EDGE_CURVE ( 'NONE', #284, #222, #24, .T. ) ;
#260 = EDGE_CURVE ( 'NONE', #272, #290, #9, .T. ) ;
#261 = ORIENTED_EDGE ( 'NONE', *, *, #286, .T. ) ;
#262 = ORIENTED_EDGE ( 'NONE', *, *, #264, .F. ) ;
#263 = ORIENTED_EDGE ( 'NONE', *, *, #274, .F. ) ;
#264 = EDGE_CURVE ( 'NONE', #271, #291, #12, .T. ) ;
#265 = EDGE_LOOP ( 'NONE', ( #261, #267, #214 ) ) ;
#266 = ADVANCED_FACE ( 'NONE', ( #10 ), #23, .T. ) ;
#267 = ORIENTED_EDGE ( 'NONE', *, *, #259, .T. ) ;
#268 =( LENGTH_UNIT ( ) NAMED_UNIT ( * ) SI_UNIT ( .MILLI., .METRE. ) );
#269 = ORIENTED_EDGE ( 'NONE', *, *, #273, .T. ) ;
#270 = ORIENTED_EDGE ( 'NONE', *, *, #260, .T. ) ;
#271 = VERTEX_POINT ( 'NONE', #7 ) ;
#272 = VERTEX_POINT ( 'NONE', #28 ) ;
#273 = EDGE_CURVE ( 'NONE', #271, #272, #107, .T. ) ;
#274 = EDGE_CURVE ( 'NONE', #291, #290, #4, .T. ) ;
#275 = ADVANCED_FACE ( 'NONE', ( #30 ), #66, .T. ) ;
#276 = EDGE_CURVE ( 'NONE', #290, #285, #45, .T. ) ;
#277 = ORIENTED_EDGE ( 'NONE', *, *, #274, .T. ) ;
#278 = EDGE_CURVE ( 'NONE', #291, #281, #69, .T. ) ;
#279 = ORIENTED_EDGE ( 'NONE', *, *, #296, .F. ) ;
#280 = EDGE_LOOP ( 'NONE', ( #269, #270, #263, #262 ) ) ;
#281 = VERTEX_POINT ( 'NONE', #41 ) ;
#282 = EDGE_CURVE ( 'NONE', #283, #281, #134, .T. ) ;
#283 = VERTEX_POINT ( 'NONE', #136 ) ;
#284 = VERTEX_POINT ( 'NONE', #135 ) ;
#285 = VERTEX_POINT ( 'NONE', #131 ) ;
#286 = EDGE_CURVE ( 'NONE', #283, #284, #40, .T. ) ;
#287 = ADVANCED_FACE ( 'NONE', ( #121 ), #47, .T. ) ;
#288 =( NAMED_UNIT ( * ) SI_UNIT ( $, .STERADIAN. ) SOLID_ANGLE_UNIT ( ) );
#289 = ADVANCED_FACE ( 'NONE', ( #127 ), #118, .T. ) ;
#290 = VERTEX_POINT ( 'NONE', #113 ) ;
#291 = VERTEX_POINT ( 'NONE', #112 ) ;
#292 = ORIENTED_EDGE ( 'NONE', *, *, #276, .T. ) ;
#293 = EDGE_CURVE ( 'NONE', #284, #285, #77, .T. ) ;
#294 = ORIENTED_EDGE ( 'NONE', *, *, #278, .F. ) ;
#295 = EDGE_LOOP ( 'NONE', ( #277, #292, #279, #294 ) ) ;
#296 = EDGE_CURVE ( 'NONE', #281, #285, #111, .T. ) ;
#297 = ORIENTED_EDGE ( 'NONE', *, *, #286, .F. ) ;
#298 = ORIENTED_EDGE ( 'NONE', *, *, #296, .T. ) ;
#299 = ORIENTED_EDGE ( 'NONE', *, *, #293, .F. ) ;
#300 = EDGE_LOOP ( 'NONE', ( #297, #251, #298, #299 ) ) ;
#301 = DIRECTION ( 'NONE',  ( 0.0000000000000000000, 0.0000000000000000000, 1.000000000000000000 ) ) ;
ENDSEC;
END-ISO-10303-21;
