ISO-10303-21;
HEADER;
FILE_DESCRIPTION (( 'STEP AP203' ),
    '1' );
FILE_NAME ('Web Model 45579_13299.step',
    '2020-11-03T21:51:38',
    ( '' ),
    ( '' ),
    'SwSTEP 2.0',
    'SolidWorks 2018',
    '' );
FILE_SCHEMA (( 'CONFIG_CONTROL_DESIGN' ));
ENDSEC;

DATA;
#1 = APPROVAL ( #2, 'UNSPECIFIED' ) ;
#2 = APPROVAL_STATUS ( 'not_yet_approved' ) ;
#3 = PERSON_AND_ORGANIZATION ( #52, #68 ) ;
#4 = EDGE_LOOP ( 'NONE', ( #51, #26 ) ) ;
#5 = CARTESIAN_POINT ( 'NONE',  ( 15.00000000000000000, 0.0000000000000000000, -4.000000000000000000 ) ) ;
#6 = APPROVAL_ROLE ( '' ) ;
#7 = CLOSED_SHELL ( 'NONE', ( #102, #100, #104, #39 ) ) ;
#8 = AXIS2_PLACEMENT_3D ( 'NONE', #166, #112, #145 ) ;
#9 = PERSON_AND_ORGANIZATION ( #52, #68 ) ;
#10 = ORIENTED_EDGE ( 'NONE', *, *, #61, .T. ) ;
#11 = DIRECTION ( 'NONE',  ( 0.0000000000000000000, 0.0000000000000000000, 1.000000000000000000 ) ) ;
#12 = DIRECTION ( 'NONE',  ( 1.000000000000000000, 0.0000000000000000000, 0.0000000000000000000 ) ) ;
#13 = ORIENTED_EDGE ( 'NONE', *, *, #160, .T. ) ;
#14 = DIRECTION ( 'NONE',  ( 0.0000000000000000000, 0.0000000000000000000, 1.000000000000000000 ) ) ;
#15 = LOCAL_TIME ( 16, 51, 38.00000000000000000, #48 ) ;
#16 = AXIS2_PLACEMENT_3D ( 'NONE', #116, #164, #86 ) ;
#17 =( NAMED_UNIT ( * ) SI_UNIT ( $, .STERADIAN. ) SOLID_ANGLE_UNIT ( ) );
#18 = APPROVAL_ROLE ( '' ) ;
#19 = PERSON_AND_ORGANIZATION ( #52, #68 ) ;
#20 = CC_DESIGN_APPROVAL ( #1, ( #23 ) ) ;
#21 = DATE_AND_TIME ( #49, #75 ) ;
#22 = DESIGN_CONTEXT ( 'detailed design', #34, 'design' ) ;
#23 = PRODUCT_DEFINITION ( 'UNKNOWN', '', #143, #22 ) ;
#24 = FACE_OUTER_BOUND ( 'NONE', #154, .T. ) ;
#25 = EDGE_CURVE ( 'NONE', #133, #119, #168, .T. ) ;
#26 = ORIENTED_EDGE ( 'NONE', *, *, #109, .F. ) ;
#27 = DIRECTION ( 'NONE',  ( 0.0000000000000000000, 0.0000000000000000000, 1.000000000000000000 ) ) ;
#28 = EDGE_LOOP ( 'NONE', ( #41, #13 ) ) ;
#29 = DIRECTION ( 'NONE',  ( 0.0000000000000000000, 0.0000000000000000000, 1.000000000000000000 ) ) ;
#30 = PLANE ( 'NONE',  #8 ) ;
#31 = CARTESIAN_POINT ( 'NONE',  ( 0.0000000000000000000, 0.0000000000000000000, 0.0000000000000000000 ) ) ;
#32 = CALENDAR_DATE ( 2020, 3, 11 ) ;
#33 = APPLICATION_PROTOCOL_DEFINITION ( 'international standard', 'config_control_design', 1994, #44 ) ;
#34 = APPLICATION_CONTEXT ( 'configuration controlled 3d designs of mechanical parts and assemblies' ) ;
#35 = PRODUCT ( 'Web Model 45579_13299', 'Web Model 45579_13299', '', ( #113 ) ) ;
#36 = PERSON_AND_ORGANIZATION ( #52, #68 ) ;
#37 = AXIS2_PLACEMENT_3D ( 'NONE', #53, #157, #92 ) ;
#38 = CYLINDRICAL_SURFACE ( 'NONE', #134, 15.00000000000000000 ) ;
#39 = ADVANCED_FACE ( 'NONE', ( #59 ), #103, .T. ) ;
#40 = MANIFOLD_SOLID_BREP ( 'Extrude1', #7 ) ;
#41 = ORIENTED_EDGE ( 'NONE', *, *, #67, .T. ) ;
#42 = ORIENTED_EDGE ( 'NONE', *, *, #25, .T. ) ;
#43 = CC_DESIGN_PERSON_AND_ORGANIZATION_ASSIGNMENT ( #19, #130, ( #35 ) ) ;
#44 = APPLICATION_CONTEXT ( 'configuration controlled 3d designs of mechanical parts and assemblies' ) ;
#45 = APPROVAL_STATUS ( 'not_yet_approved' ) ;
#46 = CARTESIAN_POINT ( 'NONE',  ( 15.00000000000000000, 0.0000000000000000000, -4.000000000000000000 ) ) ;
#47 = UNCERTAINTY_MEASURE_WITH_UNIT (LENGTH_MEASURE( 1.000000000000000082E-05 ), #77, 'distance_accuracy_value', 'NONE');
#48 = COORDINATED_UNIVERSAL_TIME_OFFSET ( 5, 0, .BEHIND. ) ;
#49 = CALENDAR_DATE ( 2020, 3, 11 ) ;
#50 = CALENDAR_DATE ( 2020, 3, 11 ) ;
#51 = ORIENTED_EDGE ( 'NONE', *, *, #25, .F. ) ;
#52 = PERSON ( 'UNSPECIFIED', 'UNSPECIFIED', 'UNSPECIFIED', ('UNSPECIFIED'), ('UNSPECIFIED'), ('UNSPECIFIED') ) ;
#53 = CARTESIAN_POINT ( 'NONE',  ( 0.0000000000000000000, 0.0000000000000000000, 0.0000000000000000000 ) ) ;
#54 = CC_DESIGN_DATE_AND_TIME_ASSIGNMENT ( #101, #76, ( #23 ) ) ;
#55 = DIRECTION ( 'NONE',  ( 0.0000000000000000000, 0.0000000000000000000, 1.000000000000000000 ) ) ;
#56 = APPLICATION_PROTOCOL_DEFINITION ( 'international standard', 'config_control_design', 1994, #34 ) ;
#57 = FACE_OUTER_BOUND ( 'NONE', #4, .T. ) ;
#58 = DIRECTION ( 'NONE',  ( 0.0000000000000000000, 0.0000000000000000000, 1.000000000000000000 ) ) ;
#59 = FACE_OUTER_BOUND ( 'NONE', #28, .T. ) ;
#60 = ADVANCED_BREP_SHAPE_REPRESENTATION ( 'Web Model 45579_13299', ( #40, #81 ), #167 ) ;
#61 = EDGE_CURVE ( 'NONE', #119, #140, #70, .T. ) ;
#62 = CALENDAR_DATE ( 2020, 3, 11 ) ;
#63 = APPROVAL ( #88, 'UNSPECIFIED' ) ;
#64 = PERSON_AND_ORGANIZATION ( #52, #68 ) ;
#65 = ORIENTED_EDGE ( 'NONE', *, *, #61, .F. ) ;
#66 = CARTESIAN_POINT ( 'NONE',  ( -15.00000000000000000, 1.836970198721029589E-15, -4.000000000000000000 ) ) ;
#67 = EDGE_CURVE ( 'NONE', #83, #140, #71, .T. ) ;
#68 = ORGANIZATION ( 'UNSPECIFIED', 'UNSPECIFIED', '' ) ;
#69 = DATE_TIME_ROLE ( 'classification_date' ) ;
#70 = LINE ( 'NONE', #66, #72 ) ;
#71 = CIRCLE ( 'NONE', #37, 15.00000000000000000 ) ;
#72 = VECTOR ( 'NONE', #27, 1000.000000000000000 ) ;
#73 = CC_DESIGN_PERSON_AND_ORGANIZATION_ASSIGNMENT ( #64, #163, ( #78 ) ) ;
#74 = DIRECTION ( 'NONE',  ( 1.000000000000000000, 0.0000000000000000000, -0.0000000000000000000 ) ) ;
#75 = LOCAL_TIME ( 16, 51, 38.00000000000000000, #120 ) ;
#76 = DATE_TIME_ROLE ( 'creation_date' ) ;
#77 =( LENGTH_UNIT ( ) NAMED_UNIT ( * ) SI_UNIT ( .MILLI., .METRE. ) );
#78 = SECURITY_CLASSIFICATION ( '', '', #126 ) ;
#79 =( NAMED_UNIT ( * ) PLANE_ANGLE_UNIT ( ) SI_UNIT ( $, .RADIAN. ) );
#80 = CARTESIAN_POINT ( 'NONE',  ( 0.0000000000000000000, 0.0000000000000000000, 0.0000000000000000000 ) ) ;
#81 = AXIS2_PLACEMENT_3D ( 'NONE', #31, #14, #125 ) ;
#82 = PERSON_AND_ORGANIZATION ( #52, #68 ) ;
#83 = VERTEX_POINT ( 'NONE', #84 ) ;
#84 = CARTESIAN_POINT ( 'NONE',  ( 15.00000000000000000, 0.0000000000000000000, 0.0000000000000000000 ) ) ;
#85 = ORIENTED_EDGE ( 'NONE', *, *, #129, .T. ) ;
#86 = DIRECTION ( 'NONE',  ( 1.000000000000000000, 0.0000000000000000000, 0.0000000000000000000 ) ) ;
#87 = DATE_AND_TIME ( #62, #161 ) ;
#88 = APPROVAL_STATUS ( 'not_yet_approved' ) ;
#89 = SHAPE_DEFINITION_REPRESENTATION ( #174, #60 ) ;
#90 = CC_DESIGN_SECURITY_CLASSIFICATION ( #78, ( #143 ) ) ;
#91 = PERSON_AND_ORGANIZATION ( #52, #68 ) ;
#92 = DIRECTION ( 'NONE',  ( 1.000000000000000000, 0.0000000000000000000, 0.0000000000000000000 ) ) ;
#93 = DIRECTION ( 'NONE',  ( 1.000000000000000000, 0.0000000000000000000, 0.0000000000000000000 ) ) ;
#94 = CYLINDRICAL_SURFACE ( 'NONE', #124, 15.00000000000000000 ) ;
#95 = CARTESIAN_POINT ( 'NONE',  ( 0.0000000000000000000, 0.0000000000000000000, -4.000000000000000000 ) ) ;
#96 = CARTESIAN_POINT ( 'NONE',  ( -15.00000000000000000, 1.836970198721029589E-15, 0.0000000000000000000 ) ) ;
#97 = PERSON_AND_ORGANIZATION_ROLE ( 'design_supplier' ) ;
#98 = DIRECTION ( 'NONE',  ( 1.000000000000000000, 0.0000000000000000000, 0.0000000000000000000 ) ) ;
#99 = EDGE_LOOP ( 'NONE', ( #42, #10, #173, #117 ) ) ;
#100 = ADVANCED_FACE ( 'NONE', ( #24 ), #38, .T. ) ;
#101 = DATE_AND_TIME ( #158, #15 ) ;
#102 = ADVANCED_FACE ( 'NONE', ( #110 ), #94, .T. ) ;
#103 = PLANE ( 'NONE',  #105 ) ;
#104 = ADVANCED_FACE ( 'NONE', ( #57 ), #30, .F. ) ;
#105 = AXIS2_PLACEMENT_3D ( 'NONE', #80, #172, #74 ) ;
#106 = CARTESIAN_POINT ( 'NONE',  ( 0.0000000000000000000, 0.0000000000000000000, -4.000000000000000000 ) ) ;
#107 = DIRECTION ( 'NONE',  ( 0.0000000000000000000, 0.0000000000000000000, 1.000000000000000000 ) ) ;
#108 = LOCAL_TIME ( 16, 51, 38.00000000000000000, #114 ) ;
#109 = EDGE_CURVE ( 'NONE', #119, #133, #159, .T. ) ;
#110 = FACE_OUTER_BOUND ( 'NONE', #99, .T. ) ;
#111 = DATE_AND_TIME ( #50, #108 ) ;
#112 = DIRECTION ( 'NONE',  ( 0.0000000000000000000, 0.0000000000000000000, 1.000000000000000000 ) ) ;
#113 = MECHANICAL_CONTEXT ( 'NONE', #44, 'mechanical' ) ;
#114 = COORDINATED_UNIVERSAL_TIME_OFFSET ( 5, 0, .BEHIND. ) ;
#115 = CIRCLE ( 'NONE', #162, 15.00000000000000000 ) ;
#116 = CARTESIAN_POINT ( 'NONE',  ( 0.0000000000000000000, 0.0000000000000000000, -4.000000000000000000 ) ) ;
#117 = ORIENTED_EDGE ( 'NONE', *, *, #129, .F. ) ;
#118 = APPROVAL_DATE_TIME ( #87, #1 ) ;
#119 = VERTEX_POINT ( 'NONE', #142 ) ;
#120 = COORDINATED_UNIVERSAL_TIME_OFFSET ( 5, 0, .BEHIND. ) ;
#121 = COORDINATED_UNIVERSAL_TIME_OFFSET ( 5, 0, .BEHIND. ) ;
#122 = CARTESIAN_POINT ( 'NONE',  ( 0.0000000000000000000, 0.0000000000000000000, -4.000000000000000000 ) ) ;
#123 = APPROVAL_PERSON_ORGANIZATION ( #36, #1, #6 ) ;
#124 = AXIS2_PLACEMENT_3D ( 'NONE', #106, #107, #137 ) ;
#125 = DIRECTION ( 'NONE',  ( 1.000000000000000000, 0.0000000000000000000, 0.0000000000000000000 ) ) ;
#126 = SECURITY_CLASSIFICATION_LEVEL ( 'unclassified' ) ;
#127 = ORIENTED_EDGE ( 'NONE', *, *, #109, .T. ) ;
#128 = CARTESIAN_POINT ( 'NONE',  ( 0.0000000000000000000, 0.0000000000000000000, 0.0000000000000000000 ) ) ;
#129 = EDGE_CURVE ( 'NONE', #133, #83, #150, .T. ) ;
#130 = PERSON_AND_ORGANIZATION_ROLE ( 'design_owner' ) ;
#131 = CC_DESIGN_PERSON_AND_ORGANIZATION_ASSIGNMENT ( #3, #149, ( #23 ) ) ;
#132 = APPROVAL_DATE_TIME ( #21, #169 ) ;
#133 = VERTEX_POINT ( 'NONE', #46 ) ;
#134 = AXIS2_PLACEMENT_3D ( 'NONE', #95, #11, #12 ) ;
#135 = PRODUCT_RELATED_PRODUCT_CATEGORY ( 'detail', '', ( #35 ) ) ;
#136 = APPROVAL_DATE_TIME ( #111, #63 ) ;
#137 = DIRECTION ( 'NONE',  ( 1.000000000000000000, 0.0000000000000000000, 0.0000000000000000000 ) ) ;
#138 = AXIS2_PLACEMENT_3D ( 'NONE', #122, #29, #93 ) ;
#139 = LOCAL_TIME ( 16, 51, 38.00000000000000000, #144 ) ;
#140 = VERTEX_POINT ( 'NONE', #96 ) ;
#141 = CC_DESIGN_APPROVAL ( #169, ( #143 ) ) ;
#142 = CARTESIAN_POINT ( 'NONE',  ( -15.00000000000000000, 1.836970198721029589E-15, -4.000000000000000000 ) ) ;
#143 = PRODUCT_DEFINITION_FORMATION_WITH_SPECIFIED_SOURCE ( 'ANY', '', #35, .NOT_KNOWN. ) ;
#144 = COORDINATED_UNIVERSAL_TIME_OFFSET ( 5, 0, .BEHIND. ) ;
#145 = DIRECTION ( 'NONE',  ( 1.000000000000000000, 0.0000000000000000000, -0.0000000000000000000 ) ) ;
#146 = APPROVAL_ROLE ( '' ) ;
#147 = PERSON_AND_ORGANIZATION_ROLE ( 'creator' ) ;
#148 = DATE_AND_TIME ( #32, #139 ) ;
#149 = PERSON_AND_ORGANIZATION_ROLE ( 'creator' ) ;
#150 = LINE ( 'NONE', #5, #175 ) ;
#151 = PERSON_AND_ORGANIZATION ( #52, #68 ) ;
#152 = CC_DESIGN_DATE_AND_TIME_ASSIGNMENT ( #148, #69, ( #78 ) ) ;
#153 = APPROVAL_PERSON_ORGANIZATION ( #151, #63, #18 ) ;
#154 = EDGE_LOOP ( 'NONE', ( #65, #127, #85, #170 ) ) ;
#155 = CC_DESIGN_PERSON_AND_ORGANIZATION_ASSIGNMENT ( #82, #97, ( #143 ) ) ;
#156 = CC_DESIGN_PERSON_AND_ORGANIZATION_ASSIGNMENT ( #9, #147, ( #143 ) ) ;
#157 = DIRECTION ( 'NONE',  ( 0.0000000000000000000, 0.0000000000000000000, 1.000000000000000000 ) ) ;
#158 = CALENDAR_DATE ( 2020, 3, 11 ) ;
#159 = CIRCLE ( 'NONE', #16, 15.00000000000000000 ) ;
#160 = EDGE_CURVE ( 'NONE', #140, #83, #115, .T. ) ;
#161 = LOCAL_TIME ( 16, 51, 38.00000000000000000, #121 ) ;
#162 = AXIS2_PLACEMENT_3D ( 'NONE', #128, #55, #98 ) ;
#163 = PERSON_AND_ORGANIZATION_ROLE ( 'classification_officer' ) ;
#164 = DIRECTION ( 'NONE',  ( 0.0000000000000000000, 0.0000000000000000000, 1.000000000000000000 ) ) ;
#165 = APPROVAL_PERSON_ORGANIZATION ( #91, #169, #146 ) ;
#166 = CARTESIAN_POINT ( 'NONE',  ( 0.0000000000000000000, 0.0000000000000000000, -4.000000000000000000 ) ) ;
#167 =( GEOMETRIC_REPRESENTATION_CONTEXT ( 3 ) GLOBAL_UNCERTAINTY_ASSIGNED_CONTEXT ( ( #47 ) ) GLOBAL_UNIT_ASSIGNED_CONTEXT ( ( #77, #79, #17 ) ) REPRESENTATION_CONTEXT ( 'NONE', 'WORKASPACE' ) );
#168 = CIRCLE ( 'NONE', #138, 15.00000000000000000 ) ;
#169 = APPROVAL ( #45, 'UNSPECIFIED' ) ;
#170 = ORIENTED_EDGE ( 'NONE', *, *, #160, .F. ) ;
#171 = CC_DESIGN_APPROVAL ( #63, ( #78 ) ) ;
#172 = DIRECTION ( 'NONE',  ( 0.0000000000000000000, 0.0000000000000000000, 1.000000000000000000 ) ) ;
#173 = ORIENTED_EDGE ( 'NONE', *, *, #67, .F. ) ;
#174 = PRODUCT_DEFINITION_SHAPE ( 'NONE', 'NONE',  #23 ) ;
#175 = VECTOR ( 'NONE', #58, 1000.000000000000000 ) ;
ENDSEC;
END-ISO-10303-21;
