ISO-10303-21;
HEADER;
FILE_DESCRIPTION (( 'STEP AP203' ),
    '1' );
FILE_NAME ('Web Model 48853_14824.step',
    '2020-10-07T17:30:57',
    ( '' ),
    ( '' ),
    'SwSTEP 2.0',
    'SolidWorks 2018',
    '' );
FILE_SCHEMA (( 'CONFIG_CONTROL_DESIGN' ));
ENDSEC;

DATA;
#1 = AXIS2_PLACEMENT_3D ( 'NONE', #38, #27, #127 ) ;
#2 = APPROVAL_DATE_TIME ( #19, #79 ) ;
#3 = DIRECTION ( 'NONE',  ( 0.0000000000000000000, 0.0000000000000000000, 1.000000000000000000 ) ) ;
#4 = AXIS2_PLACEMENT_3D ( 'NONE', #87, #166, #44 ) ;
#5 = VECTOR ( 'NONE', #60, 1000.000000000000000 ) ;
#6 = DATE_AND_TIME ( #8, #89 ) ;
#7 = ORIENTED_EDGE ( 'NONE', *, *, #84, .F. ) ;
#8 = CALENDAR_DATE ( 2020, 7, 10 ) ;
#9 = CC_DESIGN_APPROVAL ( #107, ( #128 ) ) ;
#10 = APPROVAL_PERSON_ORGANIZATION ( #49, #107, #167 ) ;
#11 = EDGE_CURVE ( 'NONE', #103, #135, #67, .T. ) ;
#12 = VERTEX_POINT ( 'NONE', #72 ) ;
#13 = COORDINATED_UNIVERSAL_TIME_OFFSET ( 5, 0, .BEHIND. ) ;
#14 = CARTESIAN_POINT ( 'NONE',  ( 0.0000000000000000000, 0.0000000000000000000, -0.5000000000000000000 ) ) ;
#15 = EDGE_LOOP ( 'NONE', ( #45, #174, #32, #20 ) ) ;
#16 = APPROVAL_STATUS ( 'not_yet_approved' ) ;
#17 = DIRECTION ( 'NONE',  ( 1.000000000000000000, 0.0000000000000000000, 0.0000000000000000000 ) ) ;
#18 = DATE_AND_TIME ( #137, #39 ) ;
#19 = DATE_AND_TIME ( #154, #109 ) ;
#20 = ORIENTED_EDGE ( 'NONE', *, *, #11, .T. ) ;
#21 = ADVANCED_FACE ( 'NONE', ( #46 ), #54, .T. ) ;
#22 = CC_DESIGN_PERSON_AND_ORGANIZATION_ASSIGNMENT ( #23, #98, ( #128 ) ) ;
#23 = PERSON_AND_ORGANIZATION ( #37, #168 ) ;
#24 = CARTESIAN_POINT ( 'NONE',  ( -2.499999999999998668, 0.0000000000000000000, 0.5000000000000000000 ) ) ;
#25 = AXIS2_PLACEMENT_3D ( 'NONE', #153, #140, #17 ) ;
#26 = DIRECTION ( 'NONE',  ( 0.0000000000000000000, 0.0000000000000000000, 1.000000000000000000 ) ) ;
#27 = DIRECTION ( 'NONE',  ( 0.0000000000000000000, 0.0000000000000000000, 1.000000000000000000 ) ) ;
#28 = DIRECTION ( 'NONE',  ( 0.0000000000000000000, 0.0000000000000000000, 1.000000000000000000 ) ) ;
#29 = DIRECTION ( 'NONE',  ( 0.0000000000000000000, 0.0000000000000000000, 1.000000000000000000 ) ) ;
#30 = PERSON_AND_ORGANIZATION_ROLE ( 'creator' ) ;
#31 = APPROVAL_STATUS ( 'not_yet_approved' ) ;
#32 = ORIENTED_EDGE ( 'NONE', *, *, #105, .T. ) ;
#33 = LINE ( 'NONE', #24, #5 ) ;
#34 = COORDINATED_UNIVERSAL_TIME_OFFSET ( 5, 0, .BEHIND. ) ;
#35 = FACE_OUTER_BOUND ( 'NONE', #117, .T. ) ;
#36 = CLOSED_SHELL ( 'NONE', ( #148, #21, #138, #173 ) ) ;
#37 = PERSON ( 'UNSPECIFIED', 'UNSPECIFIED', 'UNSPECIFIED', ('UNSPECIFIED'), ('UNSPECIFIED'), ('UNSPECIFIED') ) ;
#38 = CARTESIAN_POINT ( 'NONE',  ( 0.0000000000000000000, 0.0000000000000000000, 0.5000000000000000000 ) ) ;
#39 = LOCAL_TIME ( 13, 30, 57.00000000000000000, #116 ) ;
#40 = UNCERTAINTY_MEASURE_WITH_UNIT (LENGTH_MEASURE( 1.000000000000000082E-05 ), #73, 'distance_accuracy_value', 'NONE');
#41 = DIRECTION ( 'NONE',  ( -0.0000000000000000000, -0.0000000000000000000, -1.000000000000000000 ) ) ;
#42 = CARTESIAN_POINT ( 'NONE',  ( 0.0000000000000000000, 0.0000000000000000000, -0.5000000000000000000 ) ) ;
#43 = CARTESIAN_POINT ( 'NONE',  ( -2.499999999999998668, 0.0000000000000000000, -0.5000000000000000000 ) ) ;
#44 = DIRECTION ( 'NONE',  ( -1.000000000000000000, 0.0000000000000000000, 0.0000000000000000000 ) ) ;
#45 = ORIENTED_EDGE ( 'NONE', *, *, #90, .F. ) ;
#46 = FACE_OUTER_BOUND ( 'NONE', #15, .T. ) ;
#47 = SECURITY_CLASSIFICATION_LEVEL ( 'unclassified' ) ;
#48 = DATE_TIME_ROLE ( 'creation_date' ) ;
#49 = PERSON_AND_ORGANIZATION ( #37, #168 ) ;
#50 = AXIS2_PLACEMENT_3D ( 'NONE', #111, #28, #131 ) ;
#51 = ORIENTED_EDGE ( 'NONE', *, *, #56, .T. ) ;
#52 = CC_DESIGN_PERSON_AND_ORGANIZATION_ASSIGNMENT ( #99, #133, ( #130 ) ) ;
#53 = APPROVAL_PERSON_ORGANIZATION ( #57, #110, #97 ) ;
#54 = CYLINDRICAL_SURFACE ( 'NONE', #4, 2.499999999999998668 ) ;
#55 = EDGE_LOOP ( 'NONE', ( #170, #147 ) ) ;
#56 = EDGE_CURVE ( 'NONE', #135, #103, #121, .T. ) ;
#57 = PERSON_AND_ORGANIZATION ( #37, #168 ) ;
#58 = CARTESIAN_POINT ( 'NONE',  ( 0.0000000000000000000, 0.0000000000000000000, 0.5000000000000000000 ) ) ;
#59 = COORDINATED_UNIVERSAL_TIME_OFFSET ( 5, 0, .BEHIND. ) ;
#60 = DIRECTION ( 'NONE',  ( -0.0000000000000000000, -0.0000000000000000000, -1.000000000000000000 ) ) ;
#61 = CC_DESIGN_PERSON_AND_ORGANIZATION_ASSIGNMENT ( #68, #132, ( #70 ) ) ;
#62 = DIRECTION ( 'NONE',  ( 1.000000000000000000, 0.0000000000000000000, 0.0000000000000000000 ) ) ;
#63 = AXIS2_PLACEMENT_3D ( 'NONE', #14, #85, #141 ) ;
#64 = APPLICATION_PROTOCOL_DEFINITION ( 'international standard', 'config_control_design', 1994, #144 ) ;
#65 = VECTOR ( 'NONE', #165, 1000.000000000000000 ) ;
#66 = MANIFOLD_SOLID_BREP ( 'Boss-Extrude1', #36 ) ;
#67 = CIRCLE ( 'NONE', #50, 2.499999999999998668 ) ;
#68 = PERSON_AND_ORGANIZATION ( #37, #168 ) ;
#69 = FACE_OUTER_BOUND ( 'NONE', #119, .T. ) ;
#70 = PRODUCT_DEFINITION_FORMATION_WITH_SPECIFIED_SOURCE ( 'ANY', '', #161, .NOT_KNOWN. ) ;
#71 = SHAPE_DEFINITION_REPRESENTATION ( #151, #106 ) ;
#72 = CARTESIAN_POINT ( 'NONE',  ( 2.499999999999998668, 3.061616997868381662E-16, 0.5000000000000000000 ) ) ;
#73 =( LENGTH_UNIT ( ) NAMED_UNIT ( * ) SI_UNIT ( .MILLI., .METRE. ) );
#74 = CC_DESIGN_DATE_AND_TIME_ASSIGNMENT ( #6, #48, ( #130 ) ) ;
#75 = CARTESIAN_POINT ( 'NONE',  ( -2.499999999999998668, 0.0000000000000000000, 0.5000000000000000000 ) ) ;
#76 = APPROVAL_STATUS ( 'not_yet_approved' ) ;
#77 = CALENDAR_DATE ( 2020, 7, 10 ) ;
#78 = COORDINATED_UNIVERSAL_TIME_OFFSET ( 5, 0, .BEHIND. ) ;
#79 = APPROVAL ( #16, 'UNSPECIFIED' ) ;
#80 = ORIENTED_EDGE ( 'NONE', *, *, #11, .F. ) ;
#81 = DESIGN_CONTEXT ( 'detailed design', #144, 'design' ) ;
#82 = DATE_AND_TIME ( #120, #125 ) ;
#83 = CARTESIAN_POINT ( 'NONE',  ( 0.0000000000000000000, 0.0000000000000000000, 0.5000000000000000000 ) ) ;
#84 = EDGE_CURVE ( 'NONE', #12, #115, #171, .T. ) ;
#85 = DIRECTION ( 'NONE',  ( 0.0000000000000000000, 0.0000000000000000000, 1.000000000000000000 ) ) ;
#86 = DIRECTION ( 'NONE',  ( 1.000000000000000000, 0.0000000000000000000, -0.0000000000000000000 ) ) ;
#87 = CARTESIAN_POINT ( 'NONE',  ( 0.0000000000000000000, 0.0000000000000000000, 0.5000000000000000000 ) ) ;
#88 = CYLINDRICAL_SURFACE ( 'NONE', #94, 2.499999999999998668 ) ;
#89 = LOCAL_TIME ( 13, 30, 57.00000000000000000, #34 ) ;
#90 = EDGE_CURVE ( 'NONE', #12, #135, #92, .T. ) ;
#91 = PERSON_AND_ORGANIZATION ( #37, #168 ) ;
#92 = LINE ( 'NONE', #158, #65 ) ;
#93 = CC_DESIGN_SECURITY_CLASSIFICATION ( #128, ( #70 ) ) ;
#94 = AXIS2_PLACEMENT_3D ( 'NONE', #83, #41, #126 ) ;
#95 = DIRECTION ( 'NONE',  ( 1.000000000000000000, 0.0000000000000000000, 0.0000000000000000000 ) ) ;
#96 =( NAMED_UNIT ( * ) PLANE_ANGLE_UNIT ( ) SI_UNIT ( $, .RADIAN. ) );
#97 = APPROVAL_ROLE ( '' ) ;
#98 = PERSON_AND_ORGANIZATION_ROLE ( 'classification_officer' ) ;
#99 = PERSON_AND_ORGANIZATION ( #37, #168 ) ;
#100 = CC_DESIGN_APPROVAL ( #79, ( #70 ) ) ;
#101 = DATE_AND_TIME ( #77, #118 ) ;
#102 = CC_DESIGN_PERSON_AND_ORGANIZATION_ASSIGNMENT ( #91, #114, ( #161 ) ) ;
#103 = VERTEX_POINT ( 'NONE', #43 ) ;
#104 = APPROVAL_DATE_TIME ( #101, #107 ) ;
#105 = EDGE_CURVE ( 'NONE', #115, #103, #33, .T. ) ;
#106 = ADVANCED_BREP_SHAPE_REPRESENTATION ( 'Web Model 48853_14824', ( #66, #25 ), #169 ) ;
#107 = APPROVAL ( #76, 'UNSPECIFIED' ) ;
#108 = PLANE ( 'NONE',  #123 ) ;
#109 = LOCAL_TIME ( 13, 30, 57.00000000000000000, #78 ) ;
#110 = APPROVAL ( #31, 'UNSPECIFIED' ) ;
#111 = CARTESIAN_POINT ( 'NONE',  ( 0.0000000000000000000, 0.0000000000000000000, -0.5000000000000000000 ) ) ;
#112 = APPROVAL_ROLE ( '' ) ;
#113 = FACE_OUTER_BOUND ( 'NONE', #55, .T. ) ;
#114 = PERSON_AND_ORGANIZATION_ROLE ( 'design_owner' ) ;
#115 = VERTEX_POINT ( 'NONE', #75 ) ;
#116 = COORDINATED_UNIVERSAL_TIME_OFFSET ( 5, 0, .BEHIND. ) ;
#117 = EDGE_LOOP ( 'NONE', ( #80, #175 ) ) ;
#118 = LOCAL_TIME ( 13, 30, 57.00000000000000000, #59 ) ;
#119 = EDGE_LOOP ( 'NONE', ( #7, #122, #51, #124 ) ) ;
#120 = CALENDAR_DATE ( 2020, 7, 10 ) ;
#121 = CIRCLE ( 'NONE', #157, 2.499999999999998668 ) ;
#122 = ORIENTED_EDGE ( 'NONE', *, *, #90, .T. ) ;
#123 = AXIS2_PLACEMENT_3D ( 'NONE', #58, #26, #86 ) ;
#124 = ORIENTED_EDGE ( 'NONE', *, *, #105, .F. ) ;
#125 = LOCAL_TIME ( 13, 30, 57.00000000000000000, #13 ) ;
#126 = DIRECTION ( 'NONE',  ( -1.000000000000000000, 0.0000000000000000000, 0.0000000000000000000 ) ) ;
#127 = DIRECTION ( 'NONE',  ( 1.000000000000000000, 0.0000000000000000000, 0.0000000000000000000 ) ) ;
#128 = SECURITY_CLASSIFICATION ( '', '', #47 ) ;
#129 = APPLICATION_CONTEXT ( 'configuration controlled 3d designs of mechanical parts and assemblies' ) ;
#130 = PRODUCT_DEFINITION ( 'UNKNOWN', '', #70, #81 ) ;
#131 = DIRECTION ( 'NONE',  ( 1.000000000000000000, 0.0000000000000000000, 0.0000000000000000000 ) ) ;
#132 = PERSON_AND_ORGANIZATION_ROLE ( 'design_supplier' ) ;
#133 = PERSON_AND_ORGANIZATION_ROLE ( 'creator' ) ;
#134 = CC_DESIGN_APPROVAL ( #110, ( #130 ) ) ;
#135 = VERTEX_POINT ( 'NONE', #164 ) ;
#136 = APPROVAL_PERSON_ORGANIZATION ( #149, #79, #112 ) ;
#137 = CALENDAR_DATE ( 2020, 7, 10 ) ;
#138 = ADVANCED_FACE ( 'NONE', ( #113 ), #108, .T. ) ;
#139 = PLANE ( 'NONE',  #63 ) ;
#140 = DIRECTION ( 'NONE',  ( 0.0000000000000000000, 0.0000000000000000000, 1.000000000000000000 ) ) ;
#141 = DIRECTION ( 'NONE',  ( 1.000000000000000000, 0.0000000000000000000, -0.0000000000000000000 ) ) ;
#142 =( NAMED_UNIT ( * ) SI_UNIT ( $, .STERADIAN. ) SOLID_ANGLE_UNIT ( ) );
#143 = DATE_TIME_ROLE ( 'classification_date' ) ;
#144 = APPLICATION_CONTEXT ( 'configuration controlled 3d designs of mechanical parts and assemblies' ) ;
#145 = AXIS2_PLACEMENT_3D ( 'NONE', #163, #29, #95 ) ;
#146 = CC_DESIGN_DATE_AND_TIME_ASSIGNMENT ( #82, #143, ( #128 ) ) ;
#147 = ORIENTED_EDGE ( 'NONE', *, *, #84, .T. ) ;
#148 = ADVANCED_FACE ( 'NONE', ( #69 ), #88, .T. ) ;
#149 = PERSON_AND_ORGANIZATION ( #37, #168 ) ;
#150 = EDGE_CURVE ( 'NONE', #115, #12, #152, .T. ) ;
#151 = PRODUCT_DEFINITION_SHAPE ( 'NONE', 'NONE',  #130 ) ;
#152 = CIRCLE ( 'NONE', #1, 2.499999999999998668 ) ;
#153 = CARTESIAN_POINT ( 'NONE',  ( 0.0000000000000000000, 0.0000000000000000000, 0.0000000000000000000 ) ) ;
#154 = CALENDAR_DATE ( 2020, 7, 10 ) ;
#155 = PRODUCT_RELATED_PRODUCT_CATEGORY ( 'detail', '', ( #161 ) ) ;
#156 = APPLICATION_PROTOCOL_DEFINITION ( 'international standard', 'config_control_design', 1994, #129 ) ;
#157 = AXIS2_PLACEMENT_3D ( 'NONE', #42, #3, #62 ) ;
#158 = CARTESIAN_POINT ( 'NONE',  ( 2.499999999999998668, 3.061616997868381662E-16, 0.5000000000000000000 ) ) ;
#159 = MECHANICAL_CONTEXT ( 'NONE', #129, 'mechanical' ) ;
#160 = CC_DESIGN_PERSON_AND_ORGANIZATION_ASSIGNMENT ( #172, #30, ( #70 ) ) ;
#161 = PRODUCT ( 'Web Model 48853_14824', 'Web Model 48853_14824', '', ( #159 ) ) ;
#162 = APPROVAL_DATE_TIME ( #18, #110 ) ;
#163 = CARTESIAN_POINT ( 'NONE',  ( 0.0000000000000000000, 0.0000000000000000000, 0.5000000000000000000 ) ) ;
#164 = CARTESIAN_POINT ( 'NONE',  ( 2.499999999999998668, 3.061616997868381662E-16, -0.5000000000000000000 ) ) ;
#165 = DIRECTION ( 'NONE',  ( -0.0000000000000000000, -0.0000000000000000000, -1.000000000000000000 ) ) ;
#166 = DIRECTION ( 'NONE',  ( -0.0000000000000000000, -0.0000000000000000000, -1.000000000000000000 ) ) ;
#167 = APPROVAL_ROLE ( '' ) ;
#168 = ORGANIZATION ( 'UNSPECIFIED', 'UNSPECIFIED', '' ) ;
#169 =( GEOMETRIC_REPRESENTATION_CONTEXT ( 3 ) GLOBAL_UNCERTAINTY_ASSIGNED_CONTEXT ( ( #40 ) ) GLOBAL_UNIT_ASSIGNED_CONTEXT ( ( #73, #96, #142 ) ) REPRESENTATION_CONTEXT ( 'NONE', 'WORKASPACE' ) );
#170 = ORIENTED_EDGE ( 'NONE', *, *, #150, .T. ) ;
#171 = CIRCLE ( 'NONE', #145, 2.499999999999998668 ) ;
#172 = PERSON_AND_ORGANIZATION ( #37, #168 ) ;
#173 = ADVANCED_FACE ( 'NONE', ( #35 ), #139, .F. ) ;
#174 = ORIENTED_EDGE ( 'NONE', *, *, #150, .F. ) ;
#175 = ORIENTED_EDGE ( 'NONE', *, *, #56, .F. ) ;
ENDSEC;
END-ISO-10303-21;
