ISO-10303-21;
HEADER;
FILE_DESCRIPTION (( 'STEP AP203' ),
    '1' );
FILE_NAME ('49003_35959.step',
    '2017-07-18T13:27:59',
    ( '' ),
    ( '' ),
    'SwSTEP 2.0',
    'SolidWorks 2016',
    '' );
FILE_SCHEMA (( 'CONFIG_CONTROL_DESIGN' ));
ENDSEC;

DATA;
#1 = DIRECTION ( 'NONE',  ( 0.0000000000000000000, 0.7071067811865537900, 0.7071067811865412400 ) ) ;
#2 = PERSON_AND_ORGANIZATION ( #170, #232 ) ;
#3 = UNCERTAINTY_MEASURE_WITH_UNIT (LENGTH_MEASURE( 1.000000000000000100E-005 ), #61, 'distance_accuracy_value', 'NONE');
#4 = CC_DESIGN_DATE_AND_TIME_ASSIGNMENT ( #13, #299, ( #119 ) ) ;
#5 = PRODUCT_DEFINITION_SHAPE ( 'NONE', 'NONE',  #119 ) ;
#6 = ITEM_DEFINED_TRANSFORMATION ( 'NONE', 'NONE', #164,  #197 ) ;
#7 =( GEOMETRIC_REPRESENTATION_CONTEXT ( 3 ) GLOBAL_UNCERTAINTY_ASSIGNED_CONTEXT ( ( #3 ) ) GLOBAL_UNIT_ASSIGNED_CONTEXT ( ( #61, #63, #288 ) ) REPRESENTATION_CONTEXT ( 'NONE', 'WORKASPACE' ) );
#8 = APPROVAL_DATE_TIME ( #291, #347 ) ;
#9 = DIRECTION ( 'NONE',  ( -1.000000000000000000, -0.0000000000000000000, -0.0000000000000000000 ) ) ;
#10 = DIRECTION ( 'NONE',  ( -1.000000000000000000, -0.0000000000000000000, -0.0000000000000000000 ) ) ;
#11 = DIRECTION ( 'NONE',  ( 0.0000000000000000000, 0.0000000000000000000, 1.000000000000000000 ) ) ;
#12 = LOCAL_TIME ( 9, 27, 59.00000000000000000, #75 ) ;
#13 = DATE_AND_TIME ( #77, #335 ) ;
#14 = DIRECTION ( 'NONE',  ( 0.0000000000000000000, -0.7071067811865537900, -0.7071067811865412400 ) ) ;
#15 = PERSON_AND_ORGANIZATION_ROLE ( 'creator' ) ;
#16 = COORDINATED_UNIVERSAL_TIME_OFFSET ( 5, 0, .BEHIND. ) ;
#17 = MECHANICAL_CONTEXT ( 'NONE', #356, 'mechanical' ) ;
#18 = PERSON_AND_ORGANIZATION_ROLE ( 'classification_officer' ) ;
#19 = AXIS2_PLACEMENT_3D ( 'NONE', #330, #11, #252 ) ;
#20 = VECTOR ( 'NONE', #9, 1000.000000000000000 ) ;
#21 = APPROVAL_STATUS ( 'not_yet_approved' ) ;
#22 = APPROVAL_DATE_TIME ( #249, #173 ) ;
#23 = APPROVAL ( #324, 'UNSPECIFIED' ) ;
#24 = APPROVAL_PERSON_ORGANIZATION ( #88, #35, #185 ) ;
#25 = PERSON_AND_ORGANIZATION ( #170, #232 ) ;
#26 = VECTOR ( 'NONE', #219, 1000.000000000000100 ) ;
#27 = SHAPE_REPRESENTATION ( '49003_35959', ( #19, #143, #164 ), #7 ) ;
#28 = PLANE ( 'NONE',  #309 ) ;
#29 = PERSON_AND_ORGANIZATION ( #170, #232 ) ;
#30 = SHAPE_REPRESENTATION ( '47933', ( #197 ), #103 ) ;
#31 = SHAPE_DEFINITION_REPRESENTATION ( #206, #27 ) ;
#32 = CC_DESIGN_PERSON_AND_ORGANIZATION_ASSIGNMENT ( #177, #357, ( #302 ) ) ;
#33 = LOCAL_TIME ( 9, 27, 59.00000000000000000, #323 ) ;
#34 = DIRECTION ( 'NONE',  ( 0.0000000000000000000, -0.7071067811865399100, 0.7071067811865551200 ) ) ;
#35 = APPROVAL ( #354, 'UNSPECIFIED' ) ;
#36 = ORIENTED_EDGE ( 'NONE', *, *, #48, .T. ) ;
#37 = COORDINATED_UNIVERSAL_TIME_OFFSET ( 5, 0, .BEHIND. ) ;
#38 = CC_DESIGN_SECURITY_CLASSIFICATION ( #178, ( #215 ) ) ;
#39 = EDGE_LOOP ( 'NONE', ( #202, #254, #36 ) ) ;
#40 = EDGE_CURVE ( 'NONE', #158, #282, #339, .T. ) ;
#41 = CALENDAR_DATE ( 2017, 18, 7 ) ;
#42 = APPROVAL_STATUS ( 'not_yet_approved' ) ;
#43 = APPLICATION_CONTEXT ( 'configuration controlled 3d designs of mechanical parts and assemblies' ) ;
#44 = DESIGN_CONTEXT ( 'detailed design', #322, 'design' ) ;
#45 = APPROVAL_STATUS ( 'not_yet_approved' ) ;
#46 = DATE_AND_TIME ( #113, #253 ) ;
#47 = DATE_TIME_ROLE ( 'classification_date' ) ;
#48 = EDGE_CURVE ( 'NONE', #338, #106, #346, .T. ) ;
#49 = VECTOR ( 'NONE', #350, 1000.000000000000000 ) ;
#50 = VECTOR ( 'NONE', #10, 1000.000000000000000 ) ;
#51 = PERSON_AND_ORGANIZATION ( #170, #232 ) ;
#52 = EDGE_LOOP ( 'NONE', ( #57, #332, #307, #81 ) ) ;
#53 = VECTOR ( 'NONE', #34, 1000.000000000000100 ) ;
#54 = CC_DESIGN_APPROVAL ( #35, ( #192 ) ) ;
#55 = CONTEXT_DEPENDENT_SHAPE_REPRESENTATION ( #79, #255 ) ;
#56 = CARTESIAN_POINT ( 'NONE',  ( 0.0000000000000000000, 0.0000000000000000000, 0.0000000000000000000 ) ) ;
#57 = ORIENTED_EDGE ( 'NONE', *, *, #331, .T. ) ;
#58 = DIRECTION ( 'NONE',  ( 0.0000000000000000000, 0.0000000000000000000, 1.000000000000000000 ) ) ;
#59 = CARTESIAN_POINT ( 'NONE',  ( 12.50000000000000000, -9.298916797420284900E-014, -17.67766952966378500 ) ) ;
#60 = LOCAL_TIME ( 9, 27, 59.00000000000000000, #278 ) ;
#61 =( LENGTH_UNIT ( ) NAMED_UNIT ( * ) SI_UNIT ( .MILLI., .METRE. ) );
#62 = CARTESIAN_POINT ( 'NONE',  ( 12.50000000000000000, 0.0000000000000000000, 0.0000000000000000000 ) ) ;
#63 =( NAMED_UNIT ( * ) PLANE_ANGLE_UNIT ( ) SI_UNIT ( $, .RADIAN. ) );
#64 = ORIENTED_EDGE ( 'NONE', *, *, #352, .F. ) ;
#65 = FACE_OUTER_BOUND ( 'NONE', #52, .T. ) ;
#66 = DATE_AND_TIME ( #151, #260 ) ;
#67 = ADVANCED_FACE ( 'NONE', ( #321 ), #248, .F. ) ;
#68 = APPROVAL_PERSON_ORGANIZATION ( #29, #351, #271 ) ;
#69 = ORIENTED_EDGE ( 'NONE', *, *, #284, .T. ) ;
#70 = PERSON_AND_ORGANIZATION ( #170, #232 ) ;
#71 = CC_DESIGN_APPROVAL ( #286, ( #300 ) ) ;
#72 = PLANE ( 'NONE',  #236 ) ;
#73 = LINE ( 'NONE', #345, #53 ) ;
#74 = PERSON_AND_ORGANIZATION_ROLE ( 'creator' ) ;
#75 = COORDINATED_UNIVERSAL_TIME_OFFSET ( 5, 0, .BEHIND. ) ;
#76 = APPROVAL_STATUS ( 'not_yet_approved' ) ;
#77 = CALENDAR_DATE ( 2017, 18, 7 ) ;
#78 = CC_DESIGN_APPROVAL ( #228, ( #210 ) ) ;
#79 =( REPRESENTATION_RELATIONSHIP ('NONE','NONE', #27, #30 ) REPRESENTATION_RELATIONSHIP_WITH_TRANSFORMATION ( #120 )SHAPE_REPRESENTATION_RELATIONSHIP( ) );
#80 = PRODUCT_RELATED_PRODUCT_CATEGORY ( 'detail', '', ( #138 ) ) ;
#81 = ORIENTED_EDGE ( 'NONE', *, *, #247, .T. ) ;
#82 = LOCAL_TIME ( 9, 27, 59.00000000000000000, #37 ) ;
#83 = PERSON_AND_ORGANIZATION ( #170, #232 ) ;
#84 = DIRECTION ( 'NONE',  ( 1.000000000000000000, 0.0000000000000000000, 0.0000000000000000000 ) ) ;
#85 = CARTESIAN_POINT ( 'NONE',  ( 12.50000000000000000, 8.838834764831830200, -8.838834764832018500 ) ) ;
#86 = DIRECTION ( 'NONE',  ( 0.0000000000000000000, 0.0000000000000000000, 1.000000000000000000 ) ) ;
#87 = PERSON_AND_ORGANIZATION ( #251, #133 ) ;
#88 = PERSON_AND_ORGANIZATION ( #170, #232 ) ;
#89 = LOCAL_TIME ( 9, 27, 59.00000000000000000, #16 ) ;
#90 = DESIGN_CONTEXT ( 'detailed design', #43, 'design' ) ;
#91 = ADVANCED_FACE ( 'NONE', ( #205 ), #72, .F. ) ;
#92 = CC_DESIGN_DATE_AND_TIME_ASSIGNMENT ( #46, #135, ( #210 ) ) ;
#93 = CC_DESIGN_PERSON_AND_ORGANIZATION_ASSIGNMENT ( #2, #269, ( #215 ) ) ;
#94 = VECTOR ( 'NONE', #147, 1000.000000000000100 ) ;
#95 = PRODUCT_RELATED_PRODUCT_CATEGORY ( 'detail', '', ( #195 ) ) ;
#96 = CC_DESIGN_DATE_AND_TIME_ASSIGNMENT ( #275, #129, ( #178 ) ) ;
#97 = SHAPE_DEFINITION_REPRESENTATION ( #5, #30 ) ;
#98 = DIRECTION ( 'NONE',  ( 0.0000000000000000000, 1.000000000000000000, -5.260261700116272300E-015 ) ) ;
#99 = APPLICATION_PROTOCOL_DEFINITION ( 'international standard', 'config_control_design', 1994, #267 ) ;
#100 = PERSON_AND_ORGANIZATION ( #170, #232 ) ;
#101 = DIRECTION ( 'NONE',  ( 0.0000000000000000000, -0.7071067811865551200, -0.7071067811865399100 ) ) ;
#102 = SECURITY_CLASSIFICATION_LEVEL ( 'unclassified' ) ;
#103 =( GEOMETRIC_REPRESENTATION_CONTEXT ( 3 ) GLOBAL_UNCERTAINTY_ASSIGNED_CONTEXT ( ( #234 ) ) GLOBAL_UNIT_ASSIGNED_CONTEXT ( ( #344, #314, #109 ) ) REPRESENTATION_CONTEXT ( 'NONE', 'WORKASPACE' ) );
#104 = PERSON_AND_ORGANIZATION_ROLE ( 'creator' ) ;
#105 = APPROVAL_STATUS ( 'not_yet_approved' ) ;
#106 = VERTEX_POINT ( 'NONE', #353 ) ;
#107 = APPROVAL_PERSON_ORGANIZATION ( #142, #347, #241 ) ;
#108 = COORDINATED_UNIVERSAL_TIME_OFFSET ( 5, 0, .BEHIND. ) ;
#109 =( NAMED_UNIT ( * ) SI_UNIT ( $, .STERADIAN. ) SOLID_ANGLE_UNIT ( ) );
#110 = CC_DESIGN_PERSON_AND_ORGANIZATION_ASSIGNMENT ( #208, #328, ( #210 ) ) ;
#111 = CARTESIAN_POINT ( 'NONE',  ( 19.33189675124822300, 21.14627980685099800, -38.36184642378839300 ) ) ;
#112 = CC_DESIGN_APPROVAL ( #347, ( #215 ) ) ;
#113 = CALENDAR_DATE ( 2017, 18, 7 ) ;
#114 = CARTESIAN_POINT ( 'NONE',  ( 12.50000000000000000, -9.298916797420284900E-014, -17.67766952966378500 ) ) ;
#115 = CARTESIAN_POINT ( 'NONE',  ( 0.0000000000000000000, 0.0000000000000000000, 0.0000000000000000000 ) ) ;
#116 = LINE ( 'NONE', #117, #20 ) ;
#117 = CARTESIAN_POINT ( 'NONE',  ( 12.50000000000000000, 0.0000000000000000000, 0.0000000000000000000 ) ) ;
#118 = EDGE_LOOP ( 'NONE', ( #306, #272, #319, #122 ) ) ;
#119 = PRODUCT_DEFINITION ( 'UNKNOWN', '', #302, #90 ) ;
#120 = ITEM_DEFINED_TRANSFORMATION ( 'NONE', 'NONE', #143,  #197 ) ;
#121 = CC_DESIGN_PERSON_AND_ORGANIZATION_ASSIGNMENT ( #294, #15, ( #192 ) ) ;
#122 = ORIENTED_EDGE ( 'NONE', *, *, #341, .T. ) ;
#123 = CALENDAR_DATE ( 2017, 18, 7 ) ;
#124 = CARTESIAN_POINT ( 'NONE',  ( 12.50000000000000000, 0.0000000000000000000, 0.0000000000000000000 ) ) ;
#125 = DATE_AND_TIME ( #41, #256 ) ;
#126 = DIRECTION ( 'NONE',  ( 0.0000000000000000000, 0.0000000000000000000, 1.000000000000000000 ) ) ;
#127 = PERSON_AND_ORGANIZATION_ROLE ( 'design_owner' ) ;
#128 = CARTESIAN_POINT ( 'NONE',  ( 0.0000000000000000000, -9.298916797420284900E-014, -17.67766952966378500 ) ) ;
#129 = DATE_TIME_ROLE ( 'classification_date' ) ;
#130 = COORDINATED_UNIVERSAL_TIME_OFFSET ( 5, 0, .BEHIND. ) ;
#131 = EDGE_LOOP ( 'NONE', ( #349, #154, #64, #69 ) ) ;
#132 = APPROVAL_STATUS ( 'not_yet_approved' ) ;
#133 = ORGANIZATION ( 'NAUO-ORG2', 'UNSPECIFIED', 'UNSPECIFIED' ) ;
#134 = SECURITY_CLASSIFICATION ( '', '', #191 ) ;
#135 = DATE_TIME_ROLE ( 'classification_date' ) ;
#136 = CC_DESIGN_SECURITY_CLASSIFICATION ( #210, ( #360 ) ) ;
#137 = LINE ( 'NONE', #204, #94 ) ;
#138 = PRODUCT ( '49003_35959', '49003_35959', '', ( #293 ) ) ;
#139 = CC_DESIGN_APPROVAL ( #23, ( #178 ) ) ;
#140 = CARTESIAN_POINT ( 'NONE',  ( 12.50000000000000000, -9.298916797420284900E-014, -17.67766952966378500 ) ) ;
#141 = ORIENTED_EDGE ( 'NONE', *, *, #40, .F. ) ;
#142 = PERSON_AND_ORGANIZATION ( #170, #232 ) ;
#143 = AXIS2_PLACEMENT_3D ( 'NONE', #111, #58, #186 ) ;
#144 = CARTESIAN_POINT ( 'NONE',  ( 0.0000000000000000000, -9.298916797420284900E-014, -17.67766952966378500 ) ) ;
#145 = COORDINATED_UNIVERSAL_TIME_OFFSET ( 5, 0, .BEHIND. ) ;
#146 = AXIS2_PLACEMENT_3D ( 'NONE', #160, #295, #126 ) ;
#147 = DIRECTION ( 'NONE',  ( 0.0000000000000000000, -0.7071067811865399100, 0.7071067811865551200 ) ) ;
#148 = PERSON_AND_ORGANIZATION ( #170, #232 ) ;
#149 = DATE_AND_TIME ( #297, #12 ) ;
#150 = DIRECTION ( 'NONE',  ( 0.0000000000000000000, -5.260261700116272300E-015, -1.000000000000000000 ) ) ;
#151 = CALENDAR_DATE ( 2017, 18, 7 ) ;
#152 = CC_DESIGN_SECURITY_CLASSIFICATION ( #134, ( #361 ) ) ;
#153 = CC_DESIGN_APPROVAL ( #189, ( #302 ) ) ;
#154 = ORIENTED_EDGE ( 'NONE', *, *, #341, .F. ) ;
#155 = CARTESIAN_POINT ( 'NONE',  ( 0.0000000000000000000, 0.0000000000000000000, 0.0000000000000000000 ) ) ;
#156 = CARTESIAN_POINT ( 'NONE',  ( 0.0000000000000000000, 0.0000000000000000000, 0.0000000000000000000 ) ) ;
#157 = CC_DESIGN_APPROVAL ( #351, ( #119 ) ) ;
#158 = VERTEX_POINT ( 'NONE', #128 ) ;
#159 = CALENDAR_DATE ( 2017, 18, 7 ) ;
#160 = CARTESIAN_POINT ( 'NONE',  ( 12.50000000000000000, 0.0000000000000000000, 0.0000000000000000000 ) ) ;
#161 = APPLICATION_PROTOCOL_DEFINITION ( 'international standard', 'config_control_design', 1994, #322 ) ;
#162 = VECTOR ( 'NONE', #1, 1000.000000000000100 ) ;
#163 = APPROVAL_ROLE ( '' ) ;
#164 = AXIS2_PLACEMENT_3D ( 'NONE', #199, #312, #340 ) ;
#165 = APPROVAL_PERSON_ORGANIZATION ( #233, #189, #326 ) ;
#166 = PRODUCT_DEFINITION_SHAPE ( 'NONE', 'NONE',  #361 ) ;
#167 = PERSON_AND_ORGANIZATION_ROLE ( 'creator' ) ;
#168 = COORDINATED_UNIVERSAL_TIME_OFFSET ( 5, 0, .BEHIND. ) ;
#169 = VERTEX_POINT ( 'NONE', #155 ) ;
#170 = PERSON ( 'UNSPECIFIED', 'UNSPECIFIED', 'UNSPECIFIED', ('UNSPECIFIED'), ('UNSPECIFIED'), ('UNSPECIFIED') ) ;
#171 = CALENDAR_DATE ( 2017, 18, 7 ) ;
#172 = APPROVAL_DATE_TIME ( #242, #189 ) ;
#173 = APPROVAL ( #21, 'UNKNOWN' ) ;
#174 = CC_DESIGN_PERSON_AND_ORGANIZATION_ASSIGNMENT ( #100, #18, ( #300 ) ) ;
#175 = ORIENTED_EDGE ( 'NONE', *, *, #331, .F. ) ;
#176 = DATE_AND_TIME ( #250, #182 ) ;
#177 = PERSON_AND_ORGANIZATION ( #170, #232 ) ;
#178 = SECURITY_CLASSIFICATION ( '', '', #102 ) ;
#179 = DIRECTION ( 'NONE',  ( -1.000000000000000000, 0.0000000000000000000, 0.0000000000000000000 ) ) ;
#180 = ADVANCED_FACE ( 'NONE', ( #200 ), #268, .F. ) ;
#181 = CLOSED_SHELL ( 'NONE', ( #207, #91, #67, #180, #318 ) ) ;
#182 = LOCAL_TIME ( 9, 27, 59.00000000000000000, #308 ) ;
#183 = CALENDAR_DATE ( 2017, 18, 7 ) ;
#184 = CARTESIAN_POINT ( 'NONE',  ( 12.50000000000000000, 8.838834764831830200, -8.838834764832018500 ) ) ;
#185 = APPROVAL_ROLE ( '' ) ;
#186 = DIRECTION ( 'NONE',  ( 1.000000000000000000, 0.0000000000000000000, 0.0000000000000000000 ) ) ;
#187 = APPLICATION_PROTOCOL_DEFINITION ( 'international standard', 'config_control_design', 1994, #356 ) ;
#188 = SECURITY_CLASSIFICATION_LEVEL ( 'unclassified' ) ;
#189 = APPROVAL ( #132, 'UNSPECIFIED' ) ;
#190 = CC_DESIGN_APPROVAL ( #173, ( #134 ) ) ;
#191 = SECURITY_CLASSIFICATION_LEVEL ( 'unclassified' ) ;
#192 = PRODUCT_DEFINITION ( 'UNKNOWN', '', #215, #44 ) ;
#193 = SHAPE_REPRESENTATION_RELATIONSHIP ( 'NONE' , 'NONE' ,  #30, #298 ) ;
#194 = COORDINATED_UNIVERSAL_TIME_OFFSET ( 5, 0, .BEHIND. ) ;
#195 = PRODUCT ( '47933', '47933', '', ( #17 ) ) ;
#196 = ORGANIZATION ( 'NAUO-ORG1', 'UNSPECIFIED', 'UNSPECIFIED' ) ;
#197 = AXIS2_PLACEMENT_3D ( 'NONE', #56, #224, #231 ) ;
#198 = COORDINATED_UNIVERSAL_TIME_OFFSET ( 5, 0, .BEHIND. ) ;
#199 = CARTESIAN_POINT ( 'NONE',  ( 31.83189675124823000, 21.14627980685141400, -38.36184642378816500 ) ) ;
#200 = FACE_OUTER_BOUND ( 'NONE', #39, .T. ) ;
#201 = PERSON_AND_ORGANIZATION ( #170, #232 ) ;
#202 = ORIENTED_EDGE ( 'NONE', *, *, #277, .T. ) ;
#203 = APPROVAL_PERSON_ORGANIZATION ( #51, #286, #244 ) ;
#204 = CARTESIAN_POINT ( 'NONE',  ( 0.0000000000000000000, 8.838834764831830200, -8.838834764832018500 ) ) ;
#205 = FACE_OUTER_BOUND ( 'NONE', #131, .T. ) ;
#206 = PRODUCT_DEFINITION_SHAPE ( 'NONE', 'NONE',  #192 ) ;
#207 = ADVANCED_FACE ( 'NONE', ( #65 ), #266, .F. ) ;
#208 = PERSON_AND_ORGANIZATION ( #221, #196 ) ;
#209 = CC_DESIGN_DATE_AND_TIME_ASSIGNMENT ( #66, #47, ( #134 ) ) ;
#210 = SECURITY_CLASSIFICATION ( '', '', #273 ) ;
#211 = MANIFOLD_SOLID_BREP ( 'Boss-Extrude1', #181 ) ;
#212 = DATE_TIME_ROLE ( 'creation_date' ) ;
#213 = VECTOR ( 'NONE', #348, 1000.000000000000000 ) ;
#214 = PERSON_AND_ORGANIZATION_ROLE ( 'design_owner' ) ;
#215 = PRODUCT_DEFINITION_FORMATION_WITH_SPECIFIED_SOURCE ( 'ANY', '', #138, .NOT_KNOWN. ) ;
#216 = DATE_TIME_ROLE ( 'classification_date' ) ;
#217 = CALENDAR_DATE ( 2017, 18, 7 ) ;
#218 = APPROVAL_ROLE ( '' ) ;
#219 = DIRECTION ( 'NONE',  ( 0.0000000000000000000, 0.7071067811865537900, 0.7071067811865412400 ) ) ;
#220 = PERSON_AND_ORGANIZATION ( #170, #232 ) ;
#221 = PERSON ( 'NAUO-PER1', 'UNSPECIFIED', 'UNSPECIFIED', ('UNSPECIFIED'), ('UNSPECIFIED'), ('UNSPECIFIED') ) ;
#222 = LOCAL_TIME ( 9, 27, 59.00000000000000000, #130 ) ;
#223 = APPROVAL_DATE_TIME ( #149, #23 ) ;
#224 = DIRECTION ( 'NONE',  ( 0.0000000000000000000, 0.0000000000000000000, 1.000000000000000000 ) ) ;
#225 = CC_DESIGN_PERSON_AND_ORGANIZATION_ASSIGNMENT ( #87, #245, ( #134 ) ) ;
#226 = CC_DESIGN_PERSON_AND_ORGANIZATION_ASSIGNMENT ( #148, #127, ( #138 ) ) ;
#227 = APPROVAL_PERSON_ORGANIZATION ( #87, #173, #218 ) ;
#228 = APPROVAL ( #105, 'UNKNOWN' ) ;
#229 = CARTESIAN_POINT ( 'NONE',  ( 0.0000000000000000000, 8.838834764831830200, -8.838834764832018500 ) ) ;
#230 = DIRECTION ( 'NONE',  ( 0.0000000000000000000, 0.0000000000000000000, 1.000000000000000000 ) ) ;
#231 = DIRECTION ( 'NONE',  ( 1.000000000000000000, 0.0000000000000000000, 0.0000000000000000000 ) ) ;
#232 = ORGANIZATION ( 'UNSPECIFIED', 'UNSPECIFIED', '' ) ;
#233 = PERSON_AND_ORGANIZATION ( #170, #232 ) ;
#234 = UNCERTAINTY_MEASURE_WITH_UNIT (LENGTH_MEASURE( 1.000000000000000100E-005 ), #344, 'distance_accuracy_value', 'NONE');
#235 = LINE ( 'NONE', #124, #213 ) ;
#236 = AXIS2_PLACEMENT_3D ( 'NONE', #355, #98, #292 ) ;
#237 = LOCAL_TIME ( 9, 27, 59.00000000000000000, #168 ) ;
#238 = LOCAL_TIME ( 9, 27, 59.00000000000000000, #145 ) ;
#239 = APPROVAL_DATE_TIME ( #176, #35 ) ;
#240 = DIRECTION ( 'NONE',  ( 0.0000000000000000000, -0.7071067811865412400, 0.7071067811865537900 ) ) ;
#241 = APPROVAL_ROLE ( '' ) ;
#242 = DATE_AND_TIME ( #317, #89 ) ;
#243 = APPLICATION_PROTOCOL_DEFINITION ( 'international standard', 'config_control_design', 1994, #43 ) ;
#244 = APPROVAL_ROLE ( '' ) ;
#245 = PERSON_AND_ORGANIZATION_ROLE ( 'classification_officer' ) ;
#246 = AXIS2_PLACEMENT_3D ( 'NONE', #184, #101, #259 ) ;
#247 = EDGE_CURVE ( 'NONE', #106, #282, #316, .T. ) ;
#248 = PLANE ( 'NONE',  #290 ) ;
#249 = DATE_AND_TIME ( #311, #237 ) ;
#250 = CALENDAR_DATE ( 2017, 18, 7 ) ;
#251 = PERSON ( 'NAUO-PER2', 'UNSPECIFIED', 'UNSPECIFIED', ('UNSPECIFIED'), ('UNSPECIFIED'), ('UNSPECIFIED') ) ;
#252 = DIRECTION ( 'NONE',  ( 1.000000000000000000, 0.0000000000000000000, 0.0000000000000000000 ) ) ;
#253 = LOCAL_TIME ( 9, 27, 59.00000000000000000, #108 ) ;
#254 = ORIENTED_EDGE ( 'NONE', *, *, #352, .T. ) ;
#255 = PRODUCT_DEFINITION_SHAPE ( 'NONE', 'NONE',  #360 ) ;
#256 = LOCAL_TIME ( 9, 27, 59.00000000000000000, #329 ) ;
#257 = EDGE_LOOP ( 'NONE', ( #175, #141, #313 ) ) ;
#258 = DATE_AND_TIME ( #183, #33 ) ;
#259 = DIRECTION ( 'NONE',  ( 0.0000000000000000000, 0.7071067811865399100, -0.7071067811865551200 ) ) ;
#260 = LOCAL_TIME ( 9, 27, 59.00000000000000000, #198 ) ;
#261 = VERTEX_POINT ( 'NONE', #62 ) ;
#262 = FACE_OUTER_BOUND ( 'NONE', #257, .T. ) ;
#263 = APPROVAL_DATE_TIME ( #276, #351 ) ;
#264 = CC_DESIGN_SECURITY_CLASSIFICATION ( #300, ( #302 ) ) ;
#265 = CALENDAR_DATE ( 2017, 18, 7 ) ;
#266 = PLANE ( 'NONE',  #246 ) ;
#267 = APPLICATION_CONTEXT ( 'configuration controlled 3d designs of mechanical parts and assemblies' ) ;
#268 = PLANE ( 'NONE',  #146 ) ;
#269 = PERSON_AND_ORGANIZATION_ROLE ( 'design_supplier' ) ;
#270 = VECTOR ( 'NONE', #150, 1000.000000000000000 ) ;
#271 = APPROVAL_ROLE ( '' ) ;
#272 = ORIENTED_EDGE ( 'NONE', *, *, #247, .F. ) ;
#273 = SECURITY_CLASSIFICATION_LEVEL ( 'unclassified' ) ;
#274 = APPROVAL_DATE_TIME ( #125, #228 ) ;
#275 = DATE_AND_TIME ( #123, #82 ) ;
#276 = DATE_AND_TIME ( #217, #238 ) ;
#277 = EDGE_CURVE ( 'NONE', #106, #261, #73, .T. ) ;
#278 = COORDINATED_UNIVERSAL_TIME_OFFSET ( 5, 0, .BEHIND. ) ;
#279 = LINE ( 'NONE', #114, #49 ) ;
#280 = APPROVAL_PERSON_ORGANIZATION ( #208, #228, #301 ) ;
#281 = CC_DESIGN_DATE_AND_TIME_ASSIGNMENT ( #258, #216, ( #300 ) ) ;
#282 = VERTEX_POINT ( 'NONE', #229 ) ;
#283 = CC_DESIGN_PERSON_AND_ORGANIZATION_ASSIGNMENT ( #83, #214, ( #195 ) ) ;
#284 = EDGE_CURVE ( 'NONE', #261, #169, #116, .T. ) ;
#285 = PERSON_AND_ORGANIZATION ( #170, #232 ) ;
#286 = APPROVAL ( #45, 'UNSPECIFIED' ) ;
#287 = CARTESIAN_POINT ( 'NONE',  ( 0.0000000000000000000, 0.0000000000000000000, 0.0000000000000000000 ) ) ;
#288 =( NAMED_UNIT ( * ) SI_UNIT ( $, .STERADIAN. ) SOLID_ANGLE_UNIT ( ) );
#289 = AXIS2_PLACEMENT_3D ( 'NONE', #287, #86, #84 ) ;
#290 = AXIS2_PLACEMENT_3D ( 'NONE', #140, #240, #14 ) ;
#291 = DATE_AND_TIME ( #171, #334 ) ;
#292 = DIRECTION ( 'NONE',  ( 0.0000000000000000000, 5.260261700116272300E-015, 1.000000000000000000 ) ) ;
#293 = MECHANICAL_CONTEXT ( 'NONE', #267, 'mechanical' ) ;
#294 = PERSON_AND_ORGANIZATION ( #170, #232 ) ;
#295 = DIRECTION ( 'NONE',  ( -1.000000000000000000, 0.0000000000000000000, 0.0000000000000000000 ) ) ;
#296 = PERSON_AND_ORGANIZATION_ROLE ( 'classification_officer' ) ;
#297 = CALENDAR_DATE ( 2017, 18, 7 ) ;
#298 = ADVANCED_BREP_SHAPE_REPRESENTATION ( '', ( #211, #197 ), #103 ) ;
#299 = DATE_TIME_ROLE ( 'creation_date' ) ;
#300 = SECURITY_CLASSIFICATION ( '', '', #188 ) ;
#301 = APPROVAL_ROLE ( '' ) ;
#302 = PRODUCT_DEFINITION_FORMATION_WITH_SPECIFIED_SOURCE ( 'ANY', '', #195, .NOT_KNOWN. ) ;
#303 = CARTESIAN_POINT ( 'NONE',  ( 12.50000000000000000, -9.298916797420284900E-014, -17.67766952966378500 ) ) ;
#304 = CC_DESIGN_PERSON_AND_ORGANIZATION_ASSIGNMENT ( #70, #74, ( #215 ) ) ;
#305 = CONTEXT_DEPENDENT_SHAPE_REPRESENTATION ( #359, #166 ) ;
#306 = ORIENTED_EDGE ( 'NONE', *, *, #40, .T. ) ;
#307 = ORIENTED_EDGE ( 'NONE', *, *, #277, .F. ) ;
#308 = COORDINATED_UNIVERSAL_TIME_OFFSET ( 5, 0, .BEHIND. ) ;
#309 = AXIS2_PLACEMENT_3D ( 'NONE', #115, #179, #230 ) ;
#310 = CC_DESIGN_PERSON_AND_ORGANIZATION_ASSIGNMENT ( #25, #167, ( #302 ) ) ;
#311 = CALENDAR_DATE ( 2017, 18, 7 ) ;
#312 = DIRECTION ( 'NONE',  ( -5.551115123125781500E-017, 1.665334536937735600E-016, 1.000000000000000000 ) ) ;
#313 = ORIENTED_EDGE ( 'NONE', *, *, #358, .F. ) ;
#314 =( NAMED_UNIT ( * ) PLANE_ANGLE_UNIT ( ) SI_UNIT ( $, .RADIAN. ) );
#315 = COORDINATED_UNIVERSAL_TIME_OFFSET ( 5, 0, .BEHIND. ) ;
#316 = LINE ( 'NONE', #85, #50 ) ;
#317 = CALENDAR_DATE ( 2017, 18, 7 ) ;
#318 = ADVANCED_FACE ( 'NONE', ( #262 ), #28, .T. ) ;
#319 = ORIENTED_EDGE ( 'NONE', *, *, #48, .F. ) ;
#320 = DATE_AND_TIME ( #159, #222 ) ;
#321 = FACE_OUTER_BOUND ( 'NONE', #118, .T. ) ;
#322 = APPLICATION_CONTEXT ( 'configuration controlled 3d designs of mechanical parts and assemblies' ) ;
#323 = COORDINATED_UNIVERSAL_TIME_OFFSET ( 5, 0, .BEHIND. ) ;
#324 = APPROVAL_STATUS ( 'not_yet_approved' ) ;
#325 = CC_DESIGN_PERSON_AND_ORGANIZATION_ASSIGNMENT ( #201, #104, ( #119 ) ) ;
#326 = APPROVAL_ROLE ( '' ) ;
#327 = CC_DESIGN_DATE_AND_TIME_ASSIGNMENT ( #320, #212, ( #192 ) ) ;
#328 = PERSON_AND_ORGANIZATION_ROLE ( 'classification_officer' ) ;
#329 = COORDINATED_UNIVERSAL_TIME_OFFSET ( 5, 0, .BEHIND. ) ;
#330 = CARTESIAN_POINT ( 'NONE',  ( 0.0000000000000000000, 0.0000000000000000000, 0.0000000000000000000 ) ) ;
#331 = EDGE_CURVE ( 'NONE', #282, #169, #137, .T. ) ;
#332 = ORIENTED_EDGE ( 'NONE', *, *, #284, .F. ) ;
#333 = CC_DESIGN_PERSON_AND_ORGANIZATION_ASSIGNMENT ( #220, #296, ( #178 ) ) ;
#334 = LOCAL_TIME ( 9, 27, 59.00000000000000000, #315 ) ;
#335 = LOCAL_TIME ( 9, 27, 59.00000000000000000, #194 ) ;
#336 = APPROVAL_DATE_TIME ( #343, #286 ) ;
#337 = LINE ( 'NONE', #156, #270 ) ;
#338 = VERTEX_POINT ( 'NONE', #59 ) ;
#339 = LINE ( 'NONE', #144, #26 ) ;
#340 = DIRECTION ( 'NONE',  ( -1.000000000000000000, -2.775557561562889200E-017, -5.551115123125782100E-017 ) ) ;
#341 = EDGE_CURVE ( 'NONE', #338, #158, #279, .T. ) ;
#342 = APPROVAL_PERSON_ORGANIZATION ( #285, #23, #163 ) ;
#343 = DATE_AND_TIME ( #265, #60 ) ;
#344 =( LENGTH_UNIT ( ) NAMED_UNIT ( * ) SI_UNIT ( .MILLI., .METRE. ) );
#345 = CARTESIAN_POINT ( 'NONE',  ( 12.50000000000000000, 8.838834764831830200, -8.838834764832018500 ) ) ;
#346 = LINE ( 'NONE', #303, #162 ) ;
#347 = APPROVAL ( #42, 'UNSPECIFIED' ) ;
#348 = DIRECTION ( 'NONE',  ( 0.0000000000000000000, -5.260261700116272300E-015, -1.000000000000000000 ) ) ;
#349 = ORIENTED_EDGE ( 'NONE', *, *, #358, .T. ) ;
#350 = DIRECTION ( 'NONE',  ( -1.000000000000000000, -0.0000000000000000000, -0.0000000000000000000 ) ) ;
#351 = APPROVAL ( #76, 'UNSPECIFIED' ) ;
#352 = EDGE_CURVE ( 'NONE', #261, #338, #235, .T. ) ;
#353 = CARTESIAN_POINT ( 'NONE',  ( 12.50000000000000000, 8.838834764831830200, -8.838834764832018500 ) ) ;
#354 = APPROVAL_STATUS ( 'not_yet_approved' ) ;
#355 = CARTESIAN_POINT ( 'NONE',  ( 12.50000000000000000, 0.0000000000000000000, 0.0000000000000000000 ) ) ;
#356 = APPLICATION_CONTEXT ( 'configuration controlled 3d designs of mechanical parts and assemblies' ) ;
#357 = PERSON_AND_ORGANIZATION_ROLE ( 'design_supplier' ) ;
#358 = EDGE_CURVE ( 'NONE', #169, #158, #337, .T. ) ;
#359 =( REPRESENTATION_RELATIONSHIP ('NONE','NONE', #27, #30 ) REPRESENTATION_RELATIONSHIP_WITH_TRANSFORMATION ( #6 )SHAPE_REPRESENTATION_RELATIONSHIP( ) );
#360 = NEXT_ASSEMBLY_USAGE_OCCURRENCE ( 'NAUO1', ' ', ' ', #192, #119, $ ) ;
#361 = NEXT_ASSEMBLY_USAGE_OCCURRENCE ( 'NAUO2', ' ', ' ', #192, #119, $ ) ;
ENDSEC;
END-ISO-10303-21;
