ISO-10303-21;
HEADER;
FILE_DESCRIPTION (( 'STEP AP203' ),
    '1' );
FILE_NAME ('25011-E0W.STEP',
    '2012-09-28T16:16:43',
    ( 'Admin' ),
    ( 'Thorlabs, Inc.' ),
    'SwSTEP 2.0',
    'SolidWorks 2011',
    '' );
FILE_SCHEMA (( 'CONFIG_CONTROL_DESIGN' ));
ENDSEC;

DATA;
#1 = ORIENTED_EDGE ( 'NONE', *, *, #81, .T. ) ;
#2 = ORIENTED_EDGE ( 'NONE', *, *, #72, .F. ) ;
#3 = EDGE_LOOP ( 'NONE', ( #87, #67, #85, #82 ) ) ;
#4 = PERSON_AND_ORGANIZATION ( #212, #211 ) ;
#5 = ADVANCED_FACE ( 'NONE', ( #130 ), #165, .T. ) ;
#6 = ORIENTED_EDGE ( 'NONE', *, *, #98, .F. ) ;
#7 = ORIENTED_EDGE ( 'NONE', *, *, #14, .T. ) ;
#8 = EDGE_LOOP ( 'NONE', ( #13, #11, #12 ) ) ;
#9 = ADVANCED_FACE ( 'NONE', ( #167 ), #166, .T. ) ;
#10 = ORIENTED_EDGE ( 'NONE', *, *, #46, .F. ) ;
#11 = ORIENTED_EDGE ( 'NONE', *, *, #72, .T. ) ;
#12 = ORIENTED_EDGE ( 'NONE', *, *, #14, .F. ) ;
#13 = ORIENTED_EDGE ( 'NONE', *, *, #63, .F. ) ;
#14 = EDGE_CURVE ( 'NONE', #43, #17, #134, .T. ) ;
#15 = PERSON_AND_ORGANIZATION_ROLE ( 'creator' ) ;
#16 = CC_DESIGN_PERSON_AND_ORGANIZATION_ASSIGNMENT ( #4, #15, ( #204 ) ) ;
#17 = VERTEX_POINT ( 'NONE', #168 ) ;
#18 = CALENDAR_DATE ( 2012, 28, 9 ) ;
#19 = DATE_TIME_ROLE ( 'creation_date' ) ;
#20 = DATE_AND_TIME ( #18, #26 ) ;
#21 = CC_DESIGN_DATE_AND_TIME_ASSIGNMENT ( #20, #19, ( #204 ) ) ;
#22 = ORIENTED_EDGE ( 'NONE', *, *, #45, .T. ) ;
#23 = MANIFOLD_SOLID_BREP ( '25011-001-1-solid1', #79 ) ;
#24 = APPROVAL_PERSON_ORGANIZATION ( #77, #75, #74 ) ;
#25 = COORDINATED_UNIVERSAL_TIME_OFFSET ( 5, 0, .BEHIND. ) ;
#26 = LOCAL_TIME ( 12, 16, 43.00000000000000000, #25 ) ;
#27 = ADVANCED_FACE ( 'NONE', ( #137 ), #140, .T. ) ;
#28 = ORIENTED_EDGE ( 'NONE', *, *, #41, .T. ) ;
#29 = ORIENTED_EDGE ( 'NONE', *, *, #38, .T. ) ;
#30 = EDGE_LOOP ( 'NONE', ( #2, #56, #57 ) ) ;
#31 = VERTEX_POINT ( 'NONE', #122 ) ;
#32 = ORIENTED_EDGE ( 'NONE', *, *, #45, .F. ) ;
#33 = EDGE_CURVE ( 'NONE', #89, #71, #117, .T. ) ;
#34 = EDGE_LOOP ( 'NONE', ( #49, #100, #54 ) ) ;
#35 = ORIENTED_EDGE ( 'NONE', *, *, #103, .T. ) ;
#36 = ORIENTED_EDGE ( 'NONE', *, *, #33, .F. ) ;
#37 = EDGE_CURVE ( 'NONE', #89, #83, #154, .T. ) ;
#38 = EDGE_CURVE ( 'NONE', #89, #31, #114, .T. ) ;
#39 = EDGE_CURVE ( 'NONE', #83, #31, #125, .T. ) ;
#40 = ADVANCED_FACE ( 'NONE', ( #146 ), #121, .T. ) ;
#41 = EDGE_CURVE ( 'NONE', #83, #89, #157, .T. ) ;
#42 = ORIENTED_EDGE ( 'NONE', *, *, #46, .T. ) ;
#43 = VERTEX_POINT ( 'NONE', #161 ) ;
#44 = ORIENTED_EDGE ( 'NONE', *, *, #105, .T. ) ;
#45 = EDGE_CURVE ( 'NONE', #83, #90, #180, .T. ) ;
#46 = EDGE_CURVE ( 'NONE', #93, #91, #148, .T. ) ;
#47 = DATE_AND_TIME ( #96, #97 ) ;
#48 = COORDINATED_UNIVERSAL_TIME_OFFSET ( 5, 0, .BEHIND. ) ;
#49 = ORIENTED_EDGE ( 'NONE', *, *, #38, .F. ) ;
#50 = EDGE_CURVE ( 'NONE', #17, #43, #190, .T. ) ;
#51 = ADVANCED_FACE ( 'NONE', ( #300 ), #312, .T. ) ;
#52 = ADVANCED_FACE ( 'NONE', ( #306 ), #192, .T. ) ;
#53 = ORIENTED_EDGE ( 'NONE', *, *, #39, .F. ) ;
#54 = ORIENTED_EDGE ( 'NONE', *, *, #39, .T. ) ;
#55 = EDGE_LOOP ( 'NONE', ( #32, #62, #60, #59 ) ) ;
#56 = ORIENTED_EDGE ( 'NONE', *, *, #63, .T. ) ;
#57 = ORIENTED_EDGE ( 'NONE', *, *, #50, .F. ) ;
#58 = ORIENTED_EDGE ( 'NONE', *, *, #102, .F. ) ;
#59 = ORIENTED_EDGE ( 'NONE', *, *, #65, .T. ) ;
#60 = ORIENTED_EDGE ( 'NONE', *, *, #33, .T. ) ;
#61 = EDGE_LOOP ( 'NONE', ( #58, #42, #44, #80 ) ) ;
#62 = ORIENTED_EDGE ( 'NONE', *, *, #37, .F. ) ;
#63 = EDGE_CURVE ( 'NONE', #70, #43, #305, .T. ) ;
#64 = ADVANCED_FACE ( 'NONE', ( #297 ), #252, .T. ) ;
#65 = EDGE_CURVE ( 'NONE', #71, #90, #249, .T. ) ;
#66 = ORIENTED_EDGE ( 'NONE', *, *, #81, .F. ) ;
#67 = ORIENTED_EDGE ( 'NONE', *, *, #102, .T. ) ;
#68 = ADVANCED_FACE ( 'NONE', ( #248 ), #303, .T. ) ;
#69 = EDGE_LOOP ( 'NONE', ( #92, #94, #88, #66 ) ) ;
#70 = VERTEX_POINT ( 'NONE', #243 ) ;
#71 = VERTEX_POINT ( 'NONE', #296 ) ;
#72 = EDGE_CURVE ( 'NONE', #70, #17, #289, .T. ) ;
#73 = PRODUCT_DEFINITION_FORMATION_WITH_SPECIFIED_SOURCE ( 'ANY', '', #213, .NOT_KNOWN. ) ;
#74 = APPROVAL_ROLE ( '' ) ;
#75 = APPROVAL ( #76, 'UNSPECIFIED' ) ;
#76 = APPROVAL_STATUS ( 'not_yet_approved' ) ;
#77 = PERSON_AND_ORGANIZATION ( #212, #211 ) ;
#78 = EDGE_LOOP ( 'NONE', ( #6, #7, #1, #10 ) ) ;
#79 = CLOSED_SHELL ( 'NONE', ( #51, #86, #101, #27, #40, #64, #68, #52, #5, #9 ) ) ;
#80 = ORIENTED_EDGE ( 'NONE', *, *, #65, .F. ) ;
#81 = EDGE_CURVE ( 'NONE', #17, #91, #284, .T. ) ;
#82 = ORIENTED_EDGE ( 'NONE', *, *, #105, .F. ) ;
#83 = VERTEX_POINT ( 'NONE', #308 ) ;
#84 = EDGE_LOOP ( 'NONE', ( #99, #22, #35, #36 ) ) ;
#85 = ORIENTED_EDGE ( 'NONE', *, *, #103, .F. ) ;
#86 = ADVANCED_FACE ( 'NONE', ( #281 ), #280, .T. ) ;
#87 = ORIENTED_EDGE ( 'NONE', *, *, #95, .T. ) ;
#88 = ORIENTED_EDGE ( 'NONE', *, *, #95, .F. ) ;
#89 = VERTEX_POINT ( 'NONE', #279 ) ;
#90 = VERTEX_POINT ( 'NONE', #277 ) ;
#91 = VERTEX_POINT ( 'NONE', #278 ) ;
#92 = ORIENTED_EDGE ( 'NONE', *, *, #50, .T. ) ;
#93 = VERTEX_POINT ( 'NONE', #293 ) ;
#94 = ORIENTED_EDGE ( 'NONE', *, *, #98, .T. ) ;
#95 = EDGE_CURVE ( 'NONE', #91, #93, #292, .T. ) ;
#96 = CALENDAR_DATE ( 2012, 28, 9 ) ;
#97 = LOCAL_TIME ( 12, 16, 43.00000000000000000, #48 ) ;
#98 = EDGE_CURVE ( 'NONE', #43, #93, #235, .T. ) ;
#99 = ORIENTED_EDGE ( 'NONE', *, *, #41, .F. ) ;
#100 = ORIENTED_EDGE ( 'NONE', *, *, #37, .T. ) ;
#101 = ADVANCED_FACE ( 'NONE', ( #271 ), #272, .T. ) ;
#102 = EDGE_CURVE ( 'NONE', #93, #71, #231, .T. ) ;
#103 = EDGE_CURVE ( 'NONE', #90, #71, #274, .T. ) ;
#104 = EDGE_LOOP ( 'NONE', ( #28, #29, #53 ) ) ;
#105 = EDGE_CURVE ( 'NONE', #91, #90, #223, .T. ) ;
#106 = PERSON_AND_ORGANIZATION ( #212, #211 ) ;
#107 = APPROVAL_DATE_TIME ( #47, #75 ) ;
#108 = CC_DESIGN_PERSON_AND_ORGANIZATION_ASSIGNMENT ( #106, #110, ( #73 ) ) ;
#109 = CC_DESIGN_APPROVAL ( #75, ( #73 ) ) ;
#110 = PERSON_AND_ORGANIZATION_ROLE ( 'creator' ) ;
#111 = DIRECTION ( 'NONE',  ( -1.000000000000000000, -1.836970198721029400E-016, -0.0000000000000000000 ) ) ;
#112 = AXIS2_PLACEMENT_3D ( 'NONE', #139, #111, #156 ) ;
#113 = AXIS2_PLACEMENT_3D ( 'NONE', #163, #119, #158 ) ;
#114 = CIRCLE ( 'NONE', #145, 45.09999999999999400 ) ;
#115 = DIRECTION ( 'NONE',  ( 0.7071067811865544600, 0.7071067811865405800, 0.0000000000000000000 ) ) ;
#116 = VECTOR ( 'NONE', #115, 1000.000000000000000 ) ;
#117 = LINE ( 'NONE', #126, #116 ) ;
#118 = CARTESIAN_POINT ( 'NONE',  ( 42.06447876981772500, -0.1742590593602263400, 0.09771937612867998000 ) ) ;
#119 = DIRECTION ( 'NONE',  ( -1.000000000000000000, -1.836970198721029400E-016, -0.0000000000000000000 ) ) ;
#120 = DIRECTION ( 'NONE',  ( -1.878145495644181100E-016, 1.000000000000000000, 0.0000000000000000000 ) ) ;
#121 = TOROIDAL_SURFACE ( 'NONE', #113, -0.1742590593602346100, 45.09999999999999400 ) ;
#122 = CARTESIAN_POINT ( 'NONE',  ( -3.035184574604600400, 0.0000000000000000000, 0.09771937612868000800 ) ) ;
#123 = CARTESIAN_POINT ( 'NONE',  ( -1.200805743587836300, 3.369699245742513700E-016, 0.09771937612868000800 ) ) ;
#124 = AXIS2_PLACEMENT_3D ( 'NONE', #123, #152, #151 ) ;
#125 = CIRCLE ( 'NONE', #149, 45.09999999999999400 ) ;
#126 = CARTESIAN_POINT ( 'NONE',  ( -1.059384387350528000, 12.69999999999999900, 0.09771937612868000800 ) ) ;
#127 = DIRECTION ( 'NONE',  ( 1.812963573987220700E-016, -1.000000000000000000, 0.0000000000000000000 ) ) ;
#128 = DIRECTION ( 'NONE',  ( -1.000000000000000000, -1.836970198721029400E-016, -0.0000000000000000000 ) ) ;
#129 = CARTESIAN_POINT ( 'NONE',  ( 0.8304365943786404800, 7.101030886967361900E-016, 0.09771937612868000800 ) ) ;
#130 = FACE_OUTER_BOUND ( 'NONE', #78, .T. ) ;
#131 = DIRECTION ( 'NONE',  ( -1.000000000000000000, -1.836970198721029400E-016, -0.0000000000000000000 ) ) ;
#132 = CARTESIAN_POINT ( 'NONE',  ( -42.43484791902692900, -7.237049501340742100E-015, 0.09771937612868000800 ) ) ;
#133 = AXIS2_PLACEMENT_3D ( 'NONE', #129, #128, #127 ) ;
#134 = CIRCLE ( 'NONE', #133, 12.55857864376269200 ) ;
#135 = DIRECTION ( 'NONE',  ( 1.836970198721029200E-016, -1.000000000000000000, 0.0000000000000000000 ) ) ;
#136 = AXIS2_PLACEMENT_3D ( 'NONE', #138, #155, #120 ) ;
#137 = FACE_OUTER_BOUND ( 'NONE', #84, .T. ) ;
#138 = CARTESIAN_POINT ( 'NONE',  ( -1.059384387350525500, 3.629486062613164200E-016, 0.09771937612868000800 ) ) ;
#139 = CARTESIAN_POINT ( 'NONE',  ( 0.8304365943786404800, 7.101030886967361900E-016, 0.09771937612868000800 ) ) ;
#140 = CONICAL_SURFACE ( 'NONE', #136, 12.69999999999999900, 0.7853981633974382900 ) ;
#141 = CARTESIAN_POINT ( 'NONE',  ( 42.06447876981772500, 0.1742590593602429100, 0.09771937612868000800 ) ) ;
#142 = DIRECTION ( 'NONE',  ( 0.0000000000000000000, 0.0000000000000000000, -1.000000000000000000 ) ) ;
#143 = DIRECTION ( 'NONE',  ( 0.0000000000000000000, -1.000000000000000000, -1.226037933409328900E-016 ) ) ;
#144 = DIRECTION ( 'NONE',  ( 2.249639673992786100E-032, -1.224646799147353200E-016, 1.000000000000000000 ) ) ;
#145 = AXIS2_PLACEMENT_3D ( 'NONE', #118, #144, #143 ) ;
#146 = FACE_OUTER_BOUND ( 'NONE', #104, .T. ) ;
#147 = SECURITY_CLASSIFICATION_LEVEL ( 'unclassified' ) ;
#148 = CIRCLE ( 'NONE', #160, 12.69999999999999900 ) ;
#149 = AXIS2_PLACEMENT_3D ( 'NONE', #141, #142, #164 ) ;
#150 = PERSON_AND_ORGANIZATION ( #212, #211 ) ;
#151 = DIRECTION ( 'NONE',  ( 1.899295172748517000E-016, -1.000000000000000000, 0.0000000000000000000 ) ) ;
#152 = DIRECTION ( 'NONE',  ( -1.000000000000000000, -1.836970198721029400E-016, -0.0000000000000000000 ) ) ;
#153 = AXIS2_PLACEMENT_3D ( 'NONE', #132, #131, #135 ) ;
#154 = CIRCLE ( 'NONE', #124, 12.55857864376269200 ) ;
#155 = DIRECTION ( 'NONE',  ( 1.000000000000000000, 1.836970198721029400E-016, 0.0000000000000000000 ) ) ;
#156 = DIRECTION ( 'NONE',  ( 1.812963573987220700E-016, -1.000000000000000000, 0.0000000000000000000 ) ) ;
#157 = CIRCLE ( 'NONE', #187, 12.55857864376269200 ) ;
#158 = DIRECTION ( 'NONE',  ( 1.836970198721029400E-016, -1.000000000000000000, 0.0000000000000000000 ) ) ;
#159 = SECURITY_CLASSIFICATION ( '', '', #147 ) ;
#160 = AXIS2_PLACEMENT_3D ( 'NONE', #171, #170, #169 ) ;
#161 = CARTESIAN_POINT ( 'NONE',  ( 0.8304365943786382600, 12.55857864376269200, 0.09771937612868154800 ) ) ;
#162 = PERSON_AND_ORGANIZATION_ROLE ( 'design_supplier' ) ;
#163 = CARTESIAN_POINT ( 'NONE',  ( 42.06447876981772500, 8.294146619514108900E-015, 0.09771937612868000800 ) ) ;
#164 = DIRECTION ( 'NONE',  ( -1.000000000000000000, 0.0000000000000000000, 0.0000000000000000000 ) ) ;
#165 = CONICAL_SURFACE ( 'NONE', #112, 12.55857864376269200, 0.7853981633974391800 ) ;
#166 = TOROIDAL_SURFACE ( 'NONE', #153, -0.1742590593602242900, 45.10000000000000100 ) ;
#167 = FACE_OUTER_BOUND ( 'NONE', #8, .T. ) ;
#168 = CARTESIAN_POINT ( 'NONE',  ( 0.8304365943786428100, -12.55857864376269200, 0.09771937612868000800 ) ) ;
#169 = DIRECTION ( 'NONE',  ( 1.878145495644181100E-016, -1.000000000000000000, 0.0000000000000000000 ) ) ;
#170 = DIRECTION ( 'NONE',  ( -1.000000000000000000, -1.836970198721029400E-016, -0.0000000000000000000 ) ) ;
#171 = CARTESIAN_POINT ( 'NONE',  ( 0.6890152381413299200, 6.841244070096711400E-016, 0.09771937612868000800 ) ) ;
#172 = CC_DESIGN_DATE_AND_TIME_ASSIGNMENT ( #174, #173, ( #159 ) ) ;
#173 = DATE_TIME_ROLE ( 'classification_date' ) ;
#174 = DATE_AND_TIME ( #175, #176 ) ;
#175 = CALENDAR_DATE ( 2012, 28, 9 ) ;
#176 = LOCAL_TIME ( 12, 16, 43.00000000000000000, #188 ) ;
#177 = DIRECTION ( 'NONE',  ( 0.7071067811865546800, -0.7071067811865403600, 8.659560562354846600E-017 ) ) ;
#178 = VECTOR ( 'NONE', #177, 1000.000000000000100 ) ;
#179 = CARTESIAN_POINT ( 'NONE',  ( -1.059384387350523300, -12.69999999999999900, 0.09771937612868156200 ) ) ;
#180 = LINE ( 'NONE', #179, #178 ) ;
#181 = PERSON_AND_ORGANIZATION_ROLE ( 'classification_officer' ) ;
#182 = PERSON_AND_ORGANIZATION ( #212, #211 ) ;
#183 = CC_DESIGN_PERSON_AND_ORGANIZATION_ASSIGNMENT ( #150, #162, ( #73 ) ) ;
#184 = DIRECTION ( 'NONE',  ( 1.899295172748517000E-016, -1.000000000000000000, 0.0000000000000000000 ) ) ;
#185 = DIRECTION ( 'NONE',  ( -1.000000000000000000, -1.836970198721029400E-016, -0.0000000000000000000 ) ) ;
#186 = CARTESIAN_POINT ( 'NONE',  ( -1.200805743587836300, 3.369699245742513700E-016, 0.09771937612868000800 ) ) ;
#187 = AXIS2_PLACEMENT_3D ( 'NONE', #186, #185, #184 ) ;
#188 = COORDINATED_UNIVERSAL_TIME_OFFSET ( 5, 0, .BEHIND. ) ;
#189 = CC_DESIGN_PERSON_AND_ORGANIZATION_ASSIGNMENT ( #182, #181, ( #159 ) ) ;
#190 = CIRCLE ( 'NONE', #302, 12.55857864376269200 ) ;
#191 = DIRECTION ( 'NONE',  ( -1.000000000000000000, -1.836970198721029400E-016, -0.0000000000000000000 ) ) ;
#192 = CYLINDRICAL_SURFACE ( 'NONE', #259, 12.69999999999999900 ) ;
#193 = CC_DESIGN_APPROVAL ( #201, ( #204 ) ) ;
#194 = APPROVAL_DATE_TIME ( #195, #201 ) ;
#195 = DATE_AND_TIME ( #196, #197 ) ;
#196 = CALENDAR_DATE ( 2012, 28, 9 ) ;
#197 = LOCAL_TIME ( 12, 16, 43.00000000000000000, #198 ) ;
#198 = COORDINATED_UNIVERSAL_TIME_OFFSET ( 5, 0, .BEHIND. ) ;
#199 = APPROVAL_PERSON_ORGANIZATION ( #203, #201, #200 ) ;
#200 = APPROVAL_ROLE ( '' ) ;
#201 = APPROVAL ( #202, 'UNSPECIFIED' ) ;
#202 = APPROVAL_STATUS ( 'not_yet_approved' ) ;
#203 = PERSON_AND_ORGANIZATION ( #212, #211 ) ;
#204 = PRODUCT_DEFINITION ( 'UNKNOWN', '', #73, #205 ) ;
#205 = DESIGN_CONTEXT ( 'detailed design', #207, 'design' ) ;
#206 = APPLICATION_PROTOCOL_DEFINITION ( 'international standard', 'config_control_design', 1994, #207 ) ;
#207 = APPLICATION_CONTEXT ( 'configuration controlled 3d designs of mechanical parts and assemblies' ) ;
#208 = CC_DESIGN_PERSON_AND_ORGANIZATION_ASSIGNMENT ( #210, #209, ( #213 ) ) ;
#209 = PERSON_AND_ORGANIZATION_ROLE ( 'design_owner' ) ;
#210 = PERSON_AND_ORGANIZATION ( #212, #211 ) ;
#211 = ORGANIZATION ( 'UNSPECIFIED', 'UNSPECIFIED', '' ) ;
#212 = PERSON ( 'UNSPECIFIED', 'UNSPECIFIED', 'UNSPECIFIED', ('UNSPECIFIED'), ('UNSPECIFIED'), ('UNSPECIFIED') ) ;
#213 = PRODUCT ( '25011-E0W', '25011-E0W', '', ( #214 ) ) ;
#214 = MECHANICAL_CONTEXT ( 'NONE', #262, 'mechanical' ) ;
#215 = APPLICATION_PROTOCOL_DEFINITION ( 'international standard', 'config_control_design', 1994, #262 ) ;
#216 =( NAMED_UNIT ( * ) SI_UNIT ( $, .STERADIAN. ) SOLID_ANGLE_UNIT ( ) );
#217 =( NAMED_UNIT ( * ) PLANE_ANGLE_UNIT ( ) SI_UNIT ( $, .RADIAN. ) );
#218 =( LENGTH_UNIT ( ) NAMED_UNIT ( * ) SI_UNIT ( .MILLI., .METRE. ) );
#219 = DIRECTION ( 'NONE',  ( -1.000000000000000000, -1.836970198721029400E-016, -0.0000000000000000000 ) ) ;
#220 = VECTOR ( 'NONE', #219, 1000.000000000000000 ) ;
#221 = CARTESIAN_POINT ( 'NONE',  ( -3.035184574604598200, -12.69999999999999900, 0.09771937612868000800 ) ) ;
#222 = DIRECTION ( 'NONE',  ( 1.878145495644181100E-016, -1.000000000000000000, 0.0000000000000000000 ) ) ;
#223 = LINE ( 'NONE', #221, #220 ) ;
#224 = CARTESIAN_POINT ( 'NONE',  ( 0.0000000000000000000, 0.0000000000000000000, 0.0000000000000000000 ) ) ;
#225 = DIRECTION ( 'NONE',  ( -1.000000000000000000, -1.836970198721029400E-016, -0.0000000000000000000 ) ) ;
#226 = VECTOR ( 'NONE', #225, 1000.000000000000000 ) ;
#227 = CARTESIAN_POINT ( 'NONE',  ( -1.059384387350525500, 3.629486062613164200E-016, 0.09771937612868000800 ) ) ;
#228 = DIRECTION ( 'NONE',  ( 1.707404996040164500E-016, -1.000000000000000000, 0.0000000000000000000 ) ) ;
#229 = DIRECTION ( 'NONE',  ( -1.000000000000000000, -1.836970198721029400E-016, -0.0000000000000000000 ) ) ;
#230 = CARTESIAN_POINT ( 'NONE',  ( -3.035184574604602200, 12.69999999999999900, 0.09771937612868156200 ) ) ;
#231 = LINE ( 'NONE', #230, #226 ) ;
#232 = AXIS2_PLACEMENT_3D ( 'NONE', #227, #229, #222 ) ;
#233 = DIRECTION ( 'NONE',  ( -0.7071067811865541200, 0.7071067811865409100, 8.659560562354854000E-017 ) ) ;
#234 = VECTOR ( 'NONE', #233, 1000.000000000000000 ) ;
#235 = LINE ( 'NONE', #238, #234 ) ;
#236 = AXIS2_PLACEMENT_3D ( 'NONE', #309, #191, #256 ) ;
#237 = CARTESIAN_POINT ( 'NONE',  ( -42.43484791902692900, 0.1742590593602170700, 0.09771937612868000800 ) ) ;
#238 = CARTESIAN_POINT ( 'NONE',  ( 0.8304365943786382600, 12.55857864376269200, 0.09771937612868153400 ) ) ;
#239 = AXIS2_PLACEMENT_3D ( 'NONE', #245, #244, #294 ) ;
#240 = DIRECTION ( 'NONE',  ( 1.878145495644181100E-016, -1.000000000000000000, 0.0000000000000000000 ) ) ;
#241 = DIRECTION ( 'NONE',  ( -1.000000000000000000, -1.836970198721029400E-016, -0.0000000000000000000 ) ) ;
#242 = AXIS2_PLACEMENT_3D ( 'NONE', #247, #241, #240 ) ;
#243 = CARTESIAN_POINT ( 'NONE',  ( 2.664815425395400200, 1.047073013270986800E-015, 0.09771937612868000800 ) ) ;
#244 = DIRECTION ( 'NONE',  ( 1.000000000000000000, 1.836970198721029400E-016, 0.0000000000000000000 ) ) ;
#245 = CARTESIAN_POINT ( 'NONE',  ( -1.059384387350525500, 3.629486062613164200E-016, 0.09771937612868000800 ) ) ;
#246 = DIRECTION ( 'NONE',  ( 1.836970198721029400E-016, -1.000000000000000000, 0.0000000000000000000 ) ) ;
#247 = CARTESIAN_POINT ( 'NONE',  ( -1.059384387350525500, 3.629486062613164200E-016, 0.09771937612868000800 ) ) ;
#248 = FACE_OUTER_BOUND ( 'NONE', #55, .T. ) ;
#249 = CIRCLE ( 'NONE', #242, 12.69999999999999900 ) ;
#250 = DIRECTION ( 'NONE',  ( 0.0000000000000000000, -1.000000000000000000, -1.226037933409328700E-016 ) ) ;
#251 = DIRECTION ( 'NONE',  ( 2.249639673992786100E-032, -1.224646799147353200E-016, 1.000000000000000000 ) ) ;
#252 = TOROIDAL_SURFACE ( 'NONE', #257, -0.1742590593602346100, 45.09999999999999400 ) ;
#253 = DIRECTION ( 'NONE',  ( 0.0000000000000000000, 0.0000000000000000000, -1.000000000000000000 ) ) ;
#254 = DIRECTION ( 'NONE',  ( 1.707404996040164500E-016, -1.000000000000000000, 0.0000000000000000000 ) ) ;
#255 = CARTESIAN_POINT ( 'NONE',  ( 42.06447876981772500, 8.294146619514108900E-015, 0.09771937612868000800 ) ) ;
#256 = DIRECTION ( 'NONE',  ( 1.836970198721029200E-016, -1.000000000000000000, 0.0000000000000000000 ) ) ;
#257 = AXIS2_PLACEMENT_3D ( 'NONE', #255, #258, #246 ) ;
#258 = DIRECTION ( 'NONE',  ( -1.000000000000000000, -1.836970198721029400E-016, -0.0000000000000000000 ) ) ;
#259 = AXIS2_PLACEMENT_3D ( 'NONE', #301, #304, #254 ) ;
#260 = DIRECTION ( 'NONE',  ( 0.0000000000000000000, 0.0000000000000000000, 1.000000000000000000 ) ) ;
#261 = DIRECTION ( 'NONE',  ( 1.000000000000000000, 0.0000000000000000000, 0.0000000000000000000 ) ) ;
#262 = APPLICATION_CONTEXT ( 'configuration controlled 3d designs of mechanical parts and assemblies' ) ;
#263 = ADVANCED_BREP_SHAPE_REPRESENTATION ( '25011-E0W', ( #23, #295 ), #264 ) ;
#264 =( GEOMETRIC_REPRESENTATION_CONTEXT ( 3 ) GLOBAL_UNCERTAINTY_ASSIGNED_CONTEXT ( ( #265 ) ) GLOBAL_UNIT_ASSIGNED_CONTEXT ( ( #218, #217, #216 ) ) REPRESENTATION_CONTEXT ( 'NONE', 'WORKASPACE' ) );
#265 = UNCERTAINTY_MEASURE_WITH_UNIT (LENGTH_MEASURE( 1.000000000000000100E-005 ), #218, 'distance_accuracy_value', 'NONE');
#266 = DIRECTION ( 'NONE',  ( -1.000000000000000000, -1.836970198721029400E-016, -0.0000000000000000000 ) ) ;
#267 = DIRECTION ( 'NONE',  ( 1.878145495644181100E-016, -1.000000000000000000, 0.0000000000000000000 ) ) ;
#268 = DIRECTION ( 'NONE',  ( -1.000000000000000000, -1.836970198721029400E-016, -0.0000000000000000000 ) ) ;
#269 = CARTESIAN_POINT ( 'NONE',  ( 0.6890152381413299200, 6.841244070096711400E-016, 0.09771937612868000800 ) ) ;
#270 = AXIS2_PLACEMENT_3D ( 'NONE', #269, #268, #267 ) ;
#271 = FACE_OUTER_BOUND ( 'NONE', #3, .T. ) ;
#272 = CYLINDRICAL_SURFACE ( 'NONE', #273, 12.69999999999999900 ) ;
#273 = AXIS2_PLACEMENT_3D ( 'NONE', #275, #266, #228 ) ;
#274 = CIRCLE ( 'NONE', #232, 12.69999999999999900 ) ;
#275 = CARTESIAN_POINT ( 'NONE',  ( -3.035184574604600400, 0.0000000000000000000, 0.09771937612868000800 ) ) ;
#276 = DIRECTION ( 'NONE',  ( 1.812963573987220700E-016, -1.000000000000000000, 0.0000000000000000000 ) ) ;
#277 = CARTESIAN_POINT ( 'NONE',  ( -1.059384387350523300, -12.69999999999999900, 0.09771937612868156200 ) ) ;
#278 = CARTESIAN_POINT ( 'NONE',  ( 0.6890152381413323600, -12.69999999999999900, 0.09771937612868000800 ) ) ;
#279 = CARTESIAN_POINT ( 'NONE',  ( -1.200805743587837600, 12.55857864376267900, 0.09771937612868153400 ) ) ;
#280 = CONICAL_SURFACE ( 'NONE', #286, 12.55857864376269200, 0.7853981633974391800 ) ;
#281 = FACE_OUTER_BOUND ( 'NONE', #69, .T. ) ;
#282 = DIRECTION ( 'NONE',  ( -0.7071067811865539000, -0.7071067811865411300, 0.0000000000000000000 ) ) ;
#283 = VECTOR ( 'NONE', #282, 1000.000000000000000 ) ;
#284 = LINE ( 'NONE', #291, #283 ) ;
#285 = DIRECTION ( 'NONE',  ( -1.000000000000000000, -1.836970198721029400E-016, -0.0000000000000000000 ) ) ;
#286 = AXIS2_PLACEMENT_3D ( 'NONE', #290, #285, #276 ) ;
#287 = DIRECTION ( 'NONE',  ( -1.000000000000000000, 0.0000000000000000000, 0.0000000000000000000 ) ) ;
#288 = AXIS2_PLACEMENT_3D ( 'NONE', #237, #253, #287 ) ;
#289 = CIRCLE ( 'NONE', #288, 45.10000000000000900 ) ;
#290 = CARTESIAN_POINT ( 'NONE',  ( 0.8304365943786404800, 7.101030886967361900E-016, 0.09771937612868000800 ) ) ;
#291 = CARTESIAN_POINT ( 'NONE',  ( 0.8304365943786428100, -12.55857864376269200, 0.09771937612868000800 ) ) ;
#292 = CIRCLE ( 'NONE', #270, 12.69999999999999900 ) ;
#293 = CARTESIAN_POINT ( 'NONE',  ( 0.6890152381413275900, 12.69999999999999900, 0.09771937612868156200 ) ) ;
#294 = DIRECTION ( 'NONE',  ( -1.878145495644181100E-016, 1.000000000000000000, 0.0000000000000000000 ) ) ;
#295 = AXIS2_PLACEMENT_3D ( 'NONE', #224, #260, #261 ) ;
#296 = CARTESIAN_POINT ( 'NONE',  ( -1.059384387350528000, 12.69999999999999900, 0.09771937612868000800 ) ) ;
#297 = FACE_OUTER_BOUND ( 'NONE', #34, .T. ) ;
#298 = CARTESIAN_POINT ( 'NONE',  ( -42.43484791902692900, -0.1742590593602315300, 0.09771937612867998000 ) ) ;
#299 = AXIS2_PLACEMENT_3D ( 'NONE', #298, #251, #250 ) ;
#300 = FACE_OUTER_BOUND ( 'NONE', #30, .T. ) ;
#301 = CARTESIAN_POINT ( 'NONE',  ( -3.035184574604600400, 0.0000000000000000000, 0.09771937612868000800 ) ) ;
#302 = AXIS2_PLACEMENT_3D ( 'NONE', #311, #307, #310 ) ;
#303 = CONICAL_SURFACE ( 'NONE', #239, 12.69999999999999900, 0.7853981633974382900 ) ;
#304 = DIRECTION ( 'NONE',  ( -1.000000000000000000, -1.836970198721029400E-016, -0.0000000000000000000 ) ) ;
#305 = CIRCLE ( 'NONE', #299, 45.10000000000000100 ) ;
#306 = FACE_OUTER_BOUND ( 'NONE', #61, .T. ) ;
#307 = DIRECTION ( 'NONE',  ( -1.000000000000000000, -1.836970198721029400E-016, -0.0000000000000000000 ) ) ;
#308 = CARTESIAN_POINT ( 'NONE',  ( -1.200805743587835000, -12.55857864376267800, 0.09771937612868000800 ) ) ;
#309 = CARTESIAN_POINT ( 'NONE',  ( -42.43484791902692900, -7.237049501340742100E-015, 0.09771937612868000800 ) ) ;
#310 = DIRECTION ( 'NONE',  ( 1.812963573987220700E-016, -1.000000000000000000, 0.0000000000000000000 ) ) ;
#311 = CARTESIAN_POINT ( 'NONE',  ( 0.8304365943786404800, 7.101030886967361900E-016, 0.09771937612868000800 ) ) ;
#312 = TOROIDAL_SURFACE ( 'NONE', #236, -0.1742590593602242900, 45.10000000000000100 ) ;
#313 = PERSON_AND_ORGANIZATION ( #212, #211 ) ;
#314 = SHAPE_DEFINITION_REPRESENTATION ( #322, #263 ) ;
#315 = PRODUCT_RELATED_PRODUCT_CATEGORY ( 'detail', '', ( #213 ) ) ;
#316 = CC_DESIGN_SECURITY_CLASSIFICATION ( #159, ( #73 ) ) ;
#317 = APPROVAL_STATUS ( 'not_yet_approved' ) ;
#318 = APPROVAL_PERSON_ORGANIZATION ( #313, #320, #321 ) ;
#319 = CC_DESIGN_APPROVAL ( #320, ( #159 ) ) ;
#320 = APPROVAL ( #317, 'UNSPECIFIED' ) ;
#321 = APPROVAL_ROLE ( '' ) ;
#322 = PRODUCT_DEFINITION_SHAPE ( 'NONE', 'NONE',  #204 ) ;
#323 = APPROVAL_DATE_TIME ( #324, #320 ) ;
#324 = DATE_AND_TIME ( #325, #326 ) ;
#325 = CALENDAR_DATE ( 2012, 28, 9 ) ;
#326 = LOCAL_TIME ( 12, 16, 43.00000000000000000, #327 ) ;
#327 = COORDINATED_UNIVERSAL_TIME_OFFSET ( 5, 0, .BEHIND. ) ;
ENDSEC;
END-ISO-10303-21;
