ISO-10303-21;
HEADER;
FILE_DESCRIPTION (( 'STEP AP203' ),
    '1' );
FILE_NAME ('Web Model 68539.STEP',
    '2017-02-01T13:30:20',
    ( '' ),
    ( '' ),
    'SwSTEP 2.0',
    'SolidWorks 2016',
    '' );
FILE_SCHEMA (( 'CONFIG_CONTROL_DESIGN' ));
ENDSEC;

DATA;
#1 = APPROVAL_DATE_TIME ( #118, #229 ) ;
#2 = ORIENTED_EDGE ( 'NONE', *, *, #97, .F. ) ;
#3 = DATE_AND_TIME ( #274, #16 ) ;
#4 = CARTESIAN_POINT ( 'NONE',  ( 0.0000000000000000000, 25.00000000000000000, -25.00000000000000000 ) ) ;
#5 = DIRECTION ( 'NONE',  ( -1.000000000000000000, 0.0000000000000000000, 5.551115123125782700E-016 ) ) ;
#6 = VECTOR ( 'NONE', #321, 1000.000000000000000 ) ;
#7 = ORIENTED_EDGE ( 'NONE', *, *, #53, .T. ) ;
#8 = AXIS2_PLACEMENT_3D ( 'NONE', #154, #127, #102 ) ;
#9 = DIRECTION ( 'NONE',  ( 0.0000000000000000000, 0.0000000000000000000, -1.000000000000000000 ) ) ;
#10 = VERTEX_POINT ( 'NONE', #81 ) ;
#11 = DIRECTION ( 'NONE',  ( 1.000000000000000000, 0.0000000000000000000, 0.0000000000000000000 ) ) ;
#12 = CARTESIAN_POINT ( 'NONE',  ( 24.99999999999999300, 25.00000000000000000, -25.00000000000000000 ) ) ;
#13 = AXIS2_PLACEMENT_3D ( 'NONE', #285, #5, #30 ) ;
#14 = DIRECTION ( 'NONE',  ( 0.0000000000000000000, -1.000000000000000000, 0.0000000000000000000 ) ) ;
#15 = APPROVAL_STATUS ( 'not_yet_approved' ) ;
#16 = LOCAL_TIME ( 8, 30, 20.00000000000000000, #133 ) ;
#17 = DATE_TIME_ROLE ( 'creation_date' ) ;
#18 = CC_DESIGN_PERSON_AND_ORGANIZATION_ASSIGNMENT ( #305, #38, ( #297 ) ) ;
#19 = CARTESIAN_POINT ( 'NONE',  ( 0.0000000000000000000, 0.0000000000000000000, 0.0000000000000000000 ) ) ;
#20 = LINE ( 'NONE', #209, #262 ) ;
#21 = ORIENTED_EDGE ( 'NONE', *, *, #210, .F. ) ;
#22 = ORIENTED_EDGE ( 'NONE', *, *, #149, .F. ) ;
#23 = APPROVAL ( #267, 'UNSPECIFIED' ) ;
#24 = ORIENTED_EDGE ( 'NONE', *, *, #201, .F. ) ;
#25 = ORIENTED_EDGE ( 'NONE', *, *, #302, .T. ) ;
#26 = VERTEX_POINT ( 'NONE', #153 ) ;
#27 = LINE ( 'NONE', #180, #174 ) ;
#28 = CARTESIAN_POINT ( 'NONE',  ( 25.00000000000000700, 0.0000000000000000000, 0.0000000000000000000 ) ) ;
#29 = CALENDAR_DATE ( 2017, 1, 2 ) ;
#30 = DIRECTION ( 'NONE',  ( 5.551115123125782700E-016, 0.0000000000000000000, 1.000000000000000000 ) ) ;
#31 = PERSON_AND_ORGANIZATION ( #207, #47 ) ;
#32 = DIRECTION ( 'NONE',  ( -0.0000000000000000000, -0.0000000000000000000, 1.000000000000000000 ) ) ;
#33 = AXIS2_PLACEMENT_3D ( 'NONE', #143, #99, #251 ) ;
#34 = EDGE_LOOP ( 'NONE', ( #240, #225, #278, #245 ) ) ;
#35 = EDGE_CURVE ( 'NONE', #10, #73, #51, .T. ) ;
#36 = DIRECTION ( 'NONE',  ( -1.000000000000000000, -0.0000000000000000000, -0.0000000000000000000 ) ) ;
#37 = VECTOR ( 'NONE', #128, 1000.000000000000100 ) ;
#38 = PERSON_AND_ORGANIZATION_ROLE ( 'design_supplier' ) ;
#39 = APPLICATION_CONTEXT ( 'configuration controlled 3d designs of mechanical parts and assemblies' ) ;
#40 = CC_DESIGN_DATE_AND_TIME_ASSIGNMENT ( #175, #17, ( #59 ) ) ;
#41 = SECURITY_CLASSIFICATION_LEVEL ( 'unclassified' ) ;
#42 = EDGE_LOOP ( 'NONE', ( #67, #200, #284 ) ) ;
#43 =( LENGTH_UNIT ( ) NAMED_UNIT ( * ) SI_UNIT ( .MILLI., .METRE. ) );
#44 = VERTEX_POINT ( 'NONE', #78 ) ;
#45 = VECTOR ( 'NONE', #123, 1000.000000000000000 ) ;
#46 = VECTOR ( 'NONE', #224, 1000.000000000000000 ) ;
#47 = ORGANIZATION ( 'UNSPECIFIED', 'UNSPECIFIED', '' ) ;
#48 = AXIS2_PLACEMENT_3D ( 'NONE', #108, #14, #213 ) ;
#49 = PERSON_AND_ORGANIZATION ( #207, #47 ) ;
#50 = PLANE ( 'NONE',  #33 ) ;
#51 = LINE ( 'NONE', #233, #147 ) ;
#52 = PLANE ( 'NONE',  #186 ) ;
#53 = EDGE_CURVE ( 'NONE', #205, #44, #144, .T. ) ;
#54 = CARTESIAN_POINT ( 'NONE',  ( 25.00000000000000700, 25.00000000000000000, 0.0000000000000000000 ) ) ;
#55 = PERSON_AND_ORGANIZATION ( #207, #47 ) ;
#56 = ORIENTED_EDGE ( 'NONE', *, *, #70, .T. ) ;
#57 = VERTEX_POINT ( 'NONE', #181 ) ;
#58 = DIRECTION ( 'NONE',  ( -0.7071067811865476800, 0.0000000000000000000, -0.7071067811865474600 ) ) ;
#59 = PRODUCT_DEFINITION ( 'UNKNOWN', '', #297, #260 ) ;
#60 = LINE ( 'NONE', #135, #222 ) ;
#61 = LINE ( 'NONE', #291, #171 ) ;
#62 = CARTESIAN_POINT ( 'NONE',  ( 0.0000000000000000000, 0.0000000000000000000, 0.0000000000000000000 ) ) ;
#63 = COORDINATED_UNIVERSAL_TIME_OFFSET ( 5, 0, .BEHIND. ) ;
#64 = DIRECTION ( 'NONE',  ( -5.551115123125782700E-016, 0.0000000000000000000, -1.000000000000000000 ) ) ;
#65 = CLOSED_SHELL ( 'NONE', ( #94, #168, #139, #169, #249 ) ) ;
#66 = ORIENTED_EDGE ( 'NONE', *, *, #188, .T. ) ;
#67 = ORIENTED_EDGE ( 'NONE', *, *, #302, .F. ) ;
#68 = ADVANCED_FACE ( 'NONE', ( #279 ), #283, .F. ) ;
#69 = ORIENTED_EDGE ( 'NONE', *, *, #97, .T. ) ;
#70 = EDGE_CURVE ( 'NONE', #44, #170, #27, .T. ) ;
#71 = ADVANCED_FACE ( 'NONE', ( #76 ), #208, .F. ) ;
#72 = DIRECTION ( 'NONE',  ( 0.0000000000000000000, -0.0000000000000000000, -1.000000000000000000 ) ) ;
#73 = VERTEX_POINT ( 'NONE', #232 ) ;
#74 = ORIENTED_EDGE ( 'NONE', *, *, #35, .T. ) ;
#75 = CARTESIAN_POINT ( 'NONE',  ( 25.00000000000000700, 25.00000000000000000, 0.0000000000000000000 ) ) ;
#76 = FACE_OUTER_BOUND ( 'NONE', #211, .T. ) ;
#77 = DIRECTION ( 'NONE',  ( 0.0000000000000000000, -1.000000000000000000, 0.0000000000000000000 ) ) ;
#78 = CARTESIAN_POINT ( 'NONE',  ( 24.99999999999999300, 0.0000000000000000000, -25.00000000000000000 ) ) ;
#79 = CC_DESIGN_PERSON_AND_ORGANIZATION_ASSIGNMENT ( #31, #93, ( #132 ) ) ;
#80 = ORIENTED_EDGE ( 'NONE', *, *, #238, .T. ) ;
#81 = CARTESIAN_POINT ( 'NONE',  ( 0.0000000000000000000, 25.00000000000000000, 0.0000000000000000000 ) ) ;
#82 = ORIENTED_EDGE ( 'NONE', *, *, #199, .T. ) ;
#83 = CARTESIAN_POINT ( 'NONE',  ( 0.0000000000000000000, 25.00000000000000000, 0.0000000000000000000 ) ) ;
#84 = DIRECTION ( 'NONE',  ( 0.0000000000000000000, 0.0000000000000000000, 1.000000000000000000 ) ) ;
#85 = ORIENTED_EDGE ( 'NONE', *, *, #199, .F. ) ;
#86 = CARTESIAN_POINT ( 'NONE',  ( 25.00000000000000000, 25.00000000000000000, 0.0000000000000000000 ) ) ;
#87 = CARTESIAN_POINT ( 'NONE',  ( 0.0000000000000000000, 25.00000000000000000, -25.00000000000000000 ) ) ;
#88 = DATE_AND_TIME ( #29, #162 ) ;
#89 = VECTOR ( 'NONE', #117, 1000.000000000000000 ) ;
#90 = PLANE ( 'NONE',  #120 ) ;
#91 = UNCERTAINTY_MEASURE_WITH_UNIT (LENGTH_MEASURE( 1.000000000000000100E-005 ), #43, 'distance_accuracy_value', 'NONE');
#92 = PRODUCT_RELATED_PRODUCT_CATEGORY ( 'detail', '', ( #132 ) ) ;
#93 = PERSON_AND_ORGANIZATION_ROLE ( 'design_owner' ) ;
#94 = ADVANCED_FACE ( 'NONE', ( #178 ), #261, .F. ) ;
#95 = CC_DESIGN_PERSON_AND_ORGANIZATION_ASSIGNMENT ( #151, #165, ( #297 ) ) ;
#96 = VERTEX_POINT ( 'NONE', #28 ) ;
#97 = EDGE_CURVE ( 'NONE', #319, #170, #107, .T. ) ;
#98 = CALENDAR_DATE ( 2017, 1, 2 ) ;
#99 = DIRECTION ( 'NONE',  ( 0.0000000000000000000, -1.000000000000000000, 0.0000000000000000000 ) ) ;
#100 = FACE_OUTER_BOUND ( 'NONE', #34, .T. ) ;
#101 = MANIFOLD_SOLID_BREP ( 'Extrude1', #65 ) ;
#102 = DIRECTION ( 'NONE',  ( 0.0000000000000000000, 0.0000000000000000000, -1.000000000000000000 ) ) ;
#103 = DIRECTION ( 'NONE',  ( -0.7071067811865475700, 0.0000000000000000000, 0.7071067811865475700 ) ) ;
#104 = PERSON_AND_ORGANIZATION ( #207, #47 ) ;
#105 = EDGE_LOOP ( 'NONE', ( #136, #21, #85 ) ) ;
#106 = CC_DESIGN_APPROVAL ( #23, ( #297 ) ) ;
#107 = LINE ( 'NONE', #203, #45 ) ;
#108 = CARTESIAN_POINT ( 'NONE',  ( 0.0000000000000000000, 25.00000000000000000, 0.0000000000000000000 ) ) ;
#109 = LINE ( 'NONE', #83, #161 ) ;
#110 = DIRECTION ( 'NONE',  ( 1.000000000000000000, 0.0000000000000000000, -0.0000000000000000000 ) ) ;
#111 = APPLICATION_PROTOCOL_DEFINITION ( 'international standard', 'config_control_design', 1994, #316 ) ;
#112 = LINE ( 'NONE', #244, #311 ) ;
#113 = ORIENTED_EDGE ( 'NONE', *, *, #312, .T. ) ;
#114 = ORIENTED_EDGE ( 'NONE', *, *, #268, .T. ) ;
#115 = LINE ( 'NONE', #159, #223 ) ;
#116 = CALENDAR_DATE ( 2017, 1, 2 ) ;
#117 = DIRECTION ( 'NONE',  ( -5.551115123125782700E-016, 0.0000000000000000000, -1.000000000000000000 ) ) ;
#118 = DATE_AND_TIME ( #298, #253 ) ;
#119 = ORIENTED_EDGE ( 'NONE', *, *, #269, .F. ) ;
#120 = AXIS2_PLACEMENT_3D ( 'NONE', #87, #84, #110 ) ;
#121 = DIRECTION ( 'NONE',  ( -0.0000000000000000000, -1.000000000000000000, -0.0000000000000000000 ) ) ;
#122 = ORIENTED_EDGE ( 'NONE', *, *, #277, .T. ) ;
#123 = DIRECTION ( 'NONE',  ( -0.0000000000000000000, -1.000000000000000000, -0.0000000000000000000 ) ) ;
#124 = LINE ( 'NONE', #286, #37 ) ;
#125 = DIRECTION ( 'NONE',  ( 0.7071067811865474600, 0.0000000000000000000, 0.7071067811865474600 ) ) ;
#126 = ORIENTED_EDGE ( 'NONE', *, *, #35, .F. ) ;
#127 = DIRECTION ( 'NONE',  ( 1.000000000000000000, -0.0000000000000000000, 0.0000000000000000000 ) ) ;
#128 = DIRECTION ( 'NONE',  ( -0.7071067811865474600, -0.0000000000000000000, -0.7071067811865474600 ) ) ;
#129 = CARTESIAN_POINT ( 'NONE',  ( 0.0000000000000000000, 0.0000000000000000000, -25.00000000000000000 ) ) ;
#130 = ORIENTED_EDGE ( 'NONE', *, *, #188, .F. ) ;
#131 = DIRECTION ( 'NONE',  ( 0.0000000000000000000, 0.0000000000000000000, 1.000000000000000000 ) ) ;
#132 = PRODUCT ( 'Web Model 68539', 'Web Model 68539', '', ( #214 ) ) ;
#133 = COORDINATED_UNIVERSAL_TIME_OFFSET ( 5, 0, .BEHIND. ) ;
#134 = CC_DESIGN_SECURITY_CLASSIFICATION ( #204, ( #297 ) ) ;
#135 = CARTESIAN_POINT ( 'NONE',  ( 25.00000000000000700, 0.0000000000000000000, 0.0000000000000000000 ) ) ;
#136 = ORIENTED_EDGE ( 'NONE', *, *, #277, .F. ) ;
#137 = LINE ( 'NONE', #301, #6 ) ;
#138 = VECTOR ( 'NONE', #32, 1000.000000000000000 ) ;
#139 = ADVANCED_FACE ( 'NONE', ( #100 ), #234, .F. ) ;
#140 =( GEOMETRIC_REPRESENTATION_CONTEXT ( 3 ) GLOBAL_UNCERTAINTY_ASSIGNED_CONTEXT ( ( #91 ) ) GLOBAL_UNIT_ASSIGNED_CONTEXT ( ( #43, #265, #191 ) ) REPRESENTATION_CONTEXT ( 'NONE', 'WORKASPACE' ) );
#141 = FACE_OUTER_BOUND ( 'NONE', #157, .T. ) ;
#142 = PRODUCT_DEFINITION_SHAPE ( 'NONE', 'NONE',  #59 ) ;
#143 = CARTESIAN_POINT ( 'NONE',  ( 24.99999999999999300, 0.0000000000000000000, -25.00000000000000000 ) ) ;
#144 = LINE ( 'NONE', #280, #250 ) ;
#145 = EDGE_CURVE ( 'NONE', #270, #10, #219, .T. ) ;
#146 = EDGE_LOOP ( 'NONE', ( #294, #66, #80 ) ) ;
#147 = VECTOR ( 'NONE', #148, 1000.000000000000000 ) ;
#148 = DIRECTION ( 'NONE',  ( -0.0000000000000000000, -1.000000000000000000, -0.0000000000000000000 ) ) ;
#149 = EDGE_CURVE ( 'NONE', #26, #96, #299, .T. ) ;
#150 = LINE ( 'NONE', #190, #46 ) ;
#151 = PERSON_AND_ORGANIZATION ( #207, #47 ) ;
#152 = LINE ( 'NONE', #75, #89 ) ;
#153 = CARTESIAN_POINT ( 'NONE',  ( 25.00000000000000700, 25.00000000000000000, 0.0000000000000000000 ) ) ;
#154 = CARTESIAN_POINT ( 'NONE',  ( 0.0000000000000000000, 25.00000000000000000, 0.0000000000000000000 ) ) ;
#155 = CC_DESIGN_APPROVAL ( #229, ( #59 ) ) ;
#156 = CARTESIAN_POINT ( 'NONE',  ( 0.0000000000000000000, 25.00000000000000000, 0.0000000000000000000 ) ) ;
#157 = EDGE_LOOP ( 'NONE', ( #82, #276, #24, #74 ) ) ;
#158 = CARTESIAN_POINT ( 'NONE',  ( 0.0000000000000000000, 25.00000000000000000, -25.00000000000000000 ) ) ;
#159 = CARTESIAN_POINT ( 'NONE',  ( 25.00000000000000000, 25.00000000000000000, 0.0000000000000000000 ) ) ;
#160 = DATE_TIME_ROLE ( 'classification_date' ) ;
#161 = VECTOR ( 'NONE', #11, 1000.000000000000000 ) ;
#162 = LOCAL_TIME ( 8, 30, 20.00000000000000000, #300 ) ;
#163 = DIRECTION ( 'NONE',  ( 0.7071067811865475700, 0.0000000000000000000, 0.7071067811865474600 ) ) ;
#164 = APPROVAL_ROLE ( '' ) ;
#165 = PERSON_AND_ORGANIZATION_ROLE ( 'creator' ) ;
#166 = APPROVAL_STATUS ( 'not_yet_approved' ) ;
#167 = AXIS2_PLACEMENT_3D ( 'NONE', #156, #9, #184 ) ;
#168 = ADVANCED_FACE ( 'NONE', ( #141 ), #309, .F. ) ;
#169 = ADVANCED_FACE ( 'NONE', ( #241 ), #236, .F. ) ;
#170 = VERTEX_POINT ( 'NONE', #313 ) ;
#171 = VECTOR ( 'NONE', #163, 1000.000000000000000 ) ;
#172 = FACE_OUTER_BOUND ( 'NONE', #42, .T. ) ;
#173 = ORIENTED_EDGE ( 'NONE', *, *, #149, .T. ) ;
#174 = VECTOR ( 'NONE', #307, 1000.000000000000000 ) ;
#175 = DATE_AND_TIME ( #116, #320 ) ;
#176 = DIRECTION ( 'NONE',  ( -0.0000000000000000000, -1.000000000000000000, -0.0000000000000000000 ) ) ;
#177 = CC_DESIGN_PERSON_AND_ORGANIZATION_ASSIGNMENT ( #104, #314, ( #204 ) ) ;
#178 = FACE_OUTER_BOUND ( 'NONE', #215, .T. ) ;
#179 = CARTESIAN_POINT ( 'NONE',  ( 24.99999999999999300, 25.00000000000000000, -25.00000000000000000 ) ) ;
#180 = CARTESIAN_POINT ( 'NONE',  ( 0.0000000000000000000, 0.0000000000000000000, -25.00000000000000000 ) ) ;
#181 = CARTESIAN_POINT ( 'NONE',  ( 25.00000000000000000, 0.0000000000000000000, 0.0000000000000000000 ) ) ;
#182 = CARTESIAN_POINT ( 'NONE',  ( 0.0000000000000000000, 25.00000000000000000, 0.0000000000000000000 ) ) ;
#183 = EDGE_CURVE ( 'NONE', #170, #96, #61, .T. ) ;
#184 = DIRECTION ( 'NONE',  ( -1.000000000000000000, 0.0000000000000000000, -0.0000000000000000000 ) ) ;
#185 = EDGE_LOOP ( 'NONE', ( #230, #239, #114 ) ) ;
#186 = AXIS2_PLACEMENT_3D ( 'NONE', #197, #226, #72 ) ;
#187 = AXIS2_PLACEMENT_3D ( 'NONE', #179, #77, #256 ) ;
#188 = EDGE_CURVE ( 'NONE', #205, #319, #20, .T. ) ;
#189 = VECTOR ( 'NONE', #310, 1000.000000000000000 ) ;
#190 = CARTESIAN_POINT ( 'NONE',  ( 0.0000000000000000000, 25.00000000000000000, -25.00000000000000000 ) ) ;
#191 =( NAMED_UNIT ( * ) SI_UNIT ( $, .STERADIAN. ) SOLID_ANGLE_UNIT ( ) );
#192 = CC_DESIGN_APPROVAL ( #271, ( #204 ) ) ;
#193 = DATE_AND_TIME ( #98, #266 ) ;
#194 = VECTOR ( 'NONE', #206, 1000.000000000000000 ) ;
#195 = APPROVAL_DATE_TIME ( #193, #23 ) ;
#196 = VECTOR ( 'NONE', #275, 1000.000000000000100 ) ;
#197 = CARTESIAN_POINT ( 'NONE',  ( 0.0000000000000000000, 0.0000000000000000000, 0.0000000000000000000 ) ) ;
#198 = EDGE_LOOP ( 'NONE', ( #303, #22, #306, #69 ) ) ;
#199 = EDGE_CURVE ( 'NONE', #73, #57, #290, .T. ) ;
#200 = ORIENTED_EDGE ( 'NONE', *, *, #183, .F. ) ;
#201 = EDGE_CURVE ( 'NONE', #10, #235, #109, .T. ) ;
#202 = PERSON_AND_ORGANIZATION ( #207, #47 ) ;
#203 = CARTESIAN_POINT ( 'NONE',  ( 0.0000000000000000000, 25.00000000000000000, -25.00000000000000000 ) ) ;
#204 = SECURITY_CLASSIFICATION ( '', '', #41 ) ;
#205 = VERTEX_POINT ( 'NONE', #12 ) ;
#206 = DIRECTION ( 'NONE',  ( -0.0000000000000000000, -1.000000000000000000, -0.0000000000000000000 ) ) ;
#207 = PERSON ( 'UNSPECIFIED', 'UNSPECIFIED', 'UNSPECIFIED', ('UNSPECIFIED'), ('UNSPECIFIED'), ('UNSPECIFIED') ) ;
#208 = PLANE ( 'NONE',  #13 ) ;
#209 = CARTESIAN_POINT ( 'NONE',  ( 0.0000000000000000000, 25.00000000000000000, -25.00000000000000000 ) ) ;
#210 = EDGE_CURVE ( 'NONE', #57, #228, #124, .T. ) ;
#211 = EDGE_LOOP ( 'NONE', ( #25, #217, #119, #173 ) ) ;
#212 = APPLICATION_PROTOCOL_DEFINITION ( 'international standard', 'config_control_design', 1994, #39 ) ;
#213 = DIRECTION ( 'NONE',  ( 0.0000000000000000000, -0.0000000000000000000, -1.000000000000000000 ) ) ;
#214 = MECHANICAL_CONTEXT ( 'NONE', #316, 'mechanical' ) ;
#215 = EDGE_LOOP ( 'NONE', ( #122, #126, #248, #113 ) ) ;
#216 = DIRECTION ( 'NONE',  ( -0.0000000000000000000, -1.000000000000000000, -0.0000000000000000000 ) ) ;
#217 = ORIENTED_EDGE ( 'NONE', *, *, #53, .F. ) ;
#218 = PERSON_AND_ORGANIZATION_ROLE ( 'creator' ) ;
#219 = LINE ( 'NONE', #182, #138 ) ;
#220 = AXIS2_PLACEMENT_3D ( 'NONE', #19, #131, #292 ) ;
#221 = ADVANCED_FACE ( 'NONE', ( #257 ), #243, .F. ) ;
#222 = VECTOR ( 'NONE', #64, 1000.000000000000000 ) ;
#223 = VECTOR ( 'NONE', #176, 1000.000000000000000 ) ;
#224 = DIRECTION ( 'NONE',  ( 0.7071067811865475700, 0.0000000000000000000, 0.7071067811865474600 ) ) ;
#225 = ORIENTED_EDGE ( 'NONE', *, *, #312, .F. ) ;
#226 = DIRECTION ( 'NONE',  ( 0.0000000000000000000, -1.000000000000000000, 0.0000000000000000000 ) ) ;
#227 = CARTESIAN_POINT ( 'NONE',  ( 0.0000000000000000000, 25.00000000000000000, -25.00000000000000000 ) ) ;
#228 = VERTEX_POINT ( 'NONE', #129 ) ;
#229 = APPROVAL ( #15, 'UNSPECIFIED' ) ;
#230 = ORIENTED_EDGE ( 'NONE', *, *, #145, .T. ) ;
#231 = SHAPE_DEFINITION_REPRESENTATION ( #142, #246 ) ;
#232 = CARTESIAN_POINT ( 'NONE',  ( 0.0000000000000000000, 0.0000000000000000000, 0.0000000000000000000 ) ) ;
#233 = CARTESIAN_POINT ( 'NONE',  ( 0.0000000000000000000, 25.00000000000000000, 0.0000000000000000000 ) ) ;
#234 = PLANE ( 'NONE',  #263 ) ;
#235 = VERTEX_POINT ( 'NONE', #86 ) ;
#236 = PLANE ( 'NONE',  #48 ) ;
#237 = EDGE_CURVE ( 'NONE', #235, #57, #115, .T. ) ;
#238 = EDGE_CURVE ( 'NONE', #319, #26, #150, .T. ) ;
#239 = ORIENTED_EDGE ( 'NONE', *, *, #201, .T. ) ;
#240 = ORIENTED_EDGE ( 'NONE', *, *, #210, .T. ) ;
#241 = FACE_OUTER_BOUND ( 'NONE', #185, .T. ) ;
#242 = APPROVAL_PERSON_ORGANIZATION ( #202, #23, #164 ) ;
#243 = PLANE ( 'NONE',  #264 ) ;
#244 = CARTESIAN_POINT ( 'NONE',  ( 0.0000000000000000000, 25.00000000000000000, -25.00000000000000000 ) ) ;
#245 = ORIENTED_EDGE ( 'NONE', *, *, #237, .T. ) ;
#246 = ADVANCED_BREP_SHAPE_REPRESENTATION ( 'Web Model 68539', ( #101, #254, #220 ), #140 ) ;
#247 = APPROVAL_ROLE ( '' ) ;
#248 = ORIENTED_EDGE ( 'NONE', *, *, #145, .F. ) ;
#249 = ADVANCED_FACE ( 'NONE', ( #304 ), #52, .T. ) ;
#250 = VECTOR ( 'NONE', #121, 1000.000000000000000 ) ;
#251 = DIRECTION ( 'NONE',  ( 0.0000000000000000000, 0.0000000000000000000, -1.000000000000000000 ) ) ;
#252 = APPROVAL_DATE_TIME ( #3, #271 ) ;
#253 = LOCAL_TIME ( 8, 30, 20.00000000000000000, #63 ) ;
#254 = MANIFOLD_SOLID_BREP ( 'Extrude2', #255 ) ;
#255 = CLOSED_SHELL ( 'NONE', ( #71, #317, #221, #68, #272 ) ) ;
#256 = DIRECTION ( 'NONE',  ( 0.0000000000000000000, 0.0000000000000000000, -1.000000000000000000 ) ) ;
#257 = FACE_OUTER_BOUND ( 'NONE', #198, .T. ) ;
#258 = COORDINATED_UNIVERSAL_TIME_OFFSET ( 5, 0, .BEHIND. ) ;
#259 = CARTESIAN_POINT ( 'NONE',  ( 0.0000000000000000000, 25.00000000000000000, -25.00000000000000000 ) ) ;
#260 = DESIGN_CONTEXT ( 'detailed design', #39, 'design' ) ;
#261 = PLANE ( 'NONE',  #8 ) ;
#262 = VECTOR ( 'NONE', #36, 1000.000000000000000 ) ;
#263 = AXIS2_PLACEMENT_3D ( 'NONE', #259, #103, #125 ) ;
#264 = AXIS2_PLACEMENT_3D ( 'NONE', #158, #287, #58 ) ;
#265 =( NAMED_UNIT ( * ) PLANE_ANGLE_UNIT ( ) SI_UNIT ( $, .RADIAN. ) );
#266 = LOCAL_TIME ( 8, 30, 20.00000000000000000, #258 ) ;
#267 = APPROVAL_STATUS ( 'not_yet_approved' ) ;
#268 = EDGE_CURVE ( 'NONE', #235, #270, #273, .T. ) ;
#269 = EDGE_CURVE ( 'NONE', #26, #205, #152, .T. ) ;
#270 = VERTEX_POINT ( 'NONE', #227 ) ;
#271 = APPROVAL ( #166, 'UNSPECIFIED' ) ;
#272 = ADVANCED_FACE ( 'NONE', ( #172 ), #50, .T. ) ;
#273 = LINE ( 'NONE', #4, #196 ) ;
#274 = CALENDAR_DATE ( 2017, 1, 2 ) ;
#275 = DIRECTION ( 'NONE',  ( -0.7071067811865474600, -0.0000000000000000000, -0.7071067811865474600 ) ) ;
#276 = ORIENTED_EDGE ( 'NONE', *, *, #237, .F. ) ;
#277 = EDGE_CURVE ( 'NONE', #228, #73, #137, .T. ) ;
#278 = ORIENTED_EDGE ( 'NONE', *, *, #268, .F. ) ;
#279 = FACE_OUTER_BOUND ( 'NONE', #146, .T. ) ;
#280 = CARTESIAN_POINT ( 'NONE',  ( 24.99999999999999300, 25.00000000000000000, -25.00000000000000000 ) ) ;
#281 = CC_DESIGN_PERSON_AND_ORGANIZATION_ASSIGNMENT ( #49, #218, ( #59 ) ) ;
#282 = EDGE_LOOP ( 'NONE', ( #56, #2, #130, #7 ) ) ;
#283 = PLANE ( 'NONE',  #187 ) ;
#284 = ORIENTED_EDGE ( 'NONE', *, *, #70, .F. ) ;
#285 = CARTESIAN_POINT ( 'NONE',  ( 25.00000000000000700, 25.00000000000000000, 0.0000000000000000000 ) ) ;
#286 = CARTESIAN_POINT ( 'NONE',  ( 0.0000000000000000000, 0.0000000000000000000, -25.00000000000000000 ) ) ;
#287 = DIRECTION ( 'NONE',  ( 0.7071067811865474600, 0.0000000000000000000, -0.7071067811865476800 ) ) ;
#288 = APPROVAL_ROLE ( '' ) ;
#289 = FACE_OUTER_BOUND ( 'NONE', #282, .T. ) ;
#290 = LINE ( 'NONE', #62, #189 ) ;
#291 = CARTESIAN_POINT ( 'NONE',  ( 0.0000000000000000000, 0.0000000000000000000, -25.00000000000000000 ) ) ;
#292 = DIRECTION ( 'NONE',  ( 1.000000000000000000, 0.0000000000000000000, 0.0000000000000000000 ) ) ;
#293 = CARTESIAN_POINT ( 'NONE',  ( 0.0000000000000000000, 25.00000000000000000, -25.00000000000000000 ) ) ;
#294 = ORIENTED_EDGE ( 'NONE', *, *, #269, .T. ) ;
#295 = APPROVAL_PERSON_ORGANIZATION ( #318, #229, #247 ) ;
#296 = COORDINATED_UNIVERSAL_TIME_OFFSET ( 5, 0, .BEHIND. ) ;
#297 = PRODUCT_DEFINITION_FORMATION_WITH_SPECIFIED_SOURCE ( 'ANY', '', #132, .NOT_KNOWN. ) ;
#298 = CALENDAR_DATE ( 2017, 1, 2 ) ;
#299 = LINE ( 'NONE', #54, #194 ) ;
#300 = COORDINATED_UNIVERSAL_TIME_OFFSET ( 5, 0, .BEHIND. ) ;
#301 = CARTESIAN_POINT ( 'NONE',  ( 0.0000000000000000000, 0.0000000000000000000, 0.0000000000000000000 ) ) ;
#302 = EDGE_CURVE ( 'NONE', #96, #44, #60, .T. ) ;
#303 = ORIENTED_EDGE ( 'NONE', *, *, #183, .T. ) ;
#304 = FACE_OUTER_BOUND ( 'NONE', #105, .T. ) ;
#305 = PERSON_AND_ORGANIZATION ( #207, #47 ) ;
#306 = ORIENTED_EDGE ( 'NONE', *, *, #238, .F. ) ;
#307 = DIRECTION ( 'NONE',  ( -1.000000000000000000, -0.0000000000000000000, -0.0000000000000000000 ) ) ;
#308 = CC_DESIGN_DATE_AND_TIME_ASSIGNMENT ( #88, #160, ( #204 ) ) ;
#309 = PLANE ( 'NONE',  #167 ) ;
#310 = DIRECTION ( 'NONE',  ( 1.000000000000000000, 0.0000000000000000000, 0.0000000000000000000 ) ) ;
#311 = VECTOR ( 'NONE', #216, 1000.000000000000000 ) ;
#312 = EDGE_CURVE ( 'NONE', #270, #228, #112, .T. ) ;
#313 = CARTESIAN_POINT ( 'NONE',  ( 0.0000000000000000000, 0.0000000000000000000, -25.00000000000000000 ) ) ;
#314 = PERSON_AND_ORGANIZATION_ROLE ( 'classification_officer' ) ;
#315 = APPROVAL_PERSON_ORGANIZATION ( #55, #271, #288 ) ;
#316 = APPLICATION_CONTEXT ( 'configuration controlled 3d designs of mechanical parts and assemblies' ) ;
#317 = ADVANCED_FACE ( 'NONE', ( #289 ), #90, .F. ) ;
#318 = PERSON_AND_ORGANIZATION ( #207, #47 ) ;
#319 = VERTEX_POINT ( 'NONE', #293 ) ;
#320 = LOCAL_TIME ( 8, 30, 20.00000000000000000, #296 ) ;
#321 = DIRECTION ( 'NONE',  ( -0.0000000000000000000, -0.0000000000000000000, 1.000000000000000000 ) ) ;
ENDSEC;
END-ISO-10303-21;
