ISO-10303-21;
HEADER;
FILE_DESCRIPTION (( 'STEP AP203' ),
    '1' );
FILE_NAME ('Web Model 11862_11862.step',
    '2019-01-03T21:46:36',
    ( '' ),
    ( '' ),
    'SwSTEP 2.0',
    'SolidWorks 2016',
    '' );
FILE_SCHEMA (( 'CONFIG_CONTROL_DESIGN' ));
ENDSEC;

DATA;
#1 = APPROVAL_PERSON_ORGANIZATION ( #174, #97, #150 ) ;
#2 = PERSON_AND_ORGANIZATION ( #165, #117 ) ;
#3 = PRODUCT_DEFINITION ( 'UNKNOWN', '', #95, #129 ) ;
#4 = DIRECTION ( 'NONE',  ( 0.0000000000000000000, 0.0000000000000000000, 1.000000000000000000 ) ) ;
#5 = PERSON_AND_ORGANIZATION ( #165, #117 ) ;
#6 = EDGE_CURVE ( 'NONE', #128, #146, #13, .T. ) ;
#7 = LOCAL_TIME ( 16, 46, 36.00000000000000000, #47 ) ;
#8 = PERSON_AND_ORGANIZATION_ROLE ( 'classification_officer' ) ;
#9 = DATE_TIME_ROLE ( 'classification_date' ) ;
#10 = CC_DESIGN_APPROVAL ( #23, ( #3 ) ) ;
#11 = CARTESIAN_POINT ( 'NONE',  ( -12.69999999999999900, 0.0000000000000000000, -1.500000000000000000 ) ) ;
#12 = APPROVAL_ROLE ( '' ) ;
#13 = LINE ( 'NONE', #37, #94 ) ;
#14 = CC_DESIGN_SECURITY_CLASSIFICATION ( #44, ( #95 ) ) ;
#15 = APPROVAL_DATE_TIME ( #110, #23 ) ;
#16 = ORIENTED_EDGE ( 'NONE', *, *, #171, .F. ) ;
#17 = EDGE_CURVE ( 'NONE', #163, #28, #88, .T. ) ;
#18 = PRODUCT ( 'Web Model 11862_11862', 'Web Model 11862_11862', '', ( #119 ) ) ;
#19 = DIRECTION ( 'NONE',  ( 1.000000000000000000, 0.0000000000000000000, -0.0000000000000000000 ) ) ;
#20 = FACE_OUTER_BOUND ( 'NONE', #109, .T. ) ;
#21 = CARTESIAN_POINT ( 'NONE',  ( 0.0000000000000000000, 0.0000000000000000000, 1.500000000000000000 ) ) ;
#22 = DIRECTION ( 'NONE',  ( 0.0000000000000000000, 0.0000000000000000000, 1.000000000000000000 ) ) ;
#23 = APPROVAL ( #34, 'UNSPECIFIED' ) ;
#24 = SECURITY_CLASSIFICATION_LEVEL ( 'unclassified' ) ;
#25 = FACE_OUTER_BOUND ( 'NONE', #102, .T. ) ;
#26 = AXIS2_PLACEMENT_3D ( 'NONE', #31, #120, #159 ) ;
#27 = EDGE_CURVE ( 'NONE', #146, #28, #29, .T. ) ;
#28 = VERTEX_POINT ( 'NONE', #11 ) ;
#29 = CIRCLE ( 'NONE', #72, 12.69999999999999900 ) ;
#30 = APPROVAL_ROLE ( '' ) ;
#31 = CARTESIAN_POINT ( 'NONE',  ( 0.0000000000000000000, 0.0000000000000000000, 0.0000000000000000000 ) ) ;
#32 = DIRECTION ( 'NONE',  ( 1.000000000000000000, 0.0000000000000000000, 0.0000000000000000000 ) ) ;
#33 = PERSON_AND_ORGANIZATION ( #165, #117 ) ;
#34 = APPROVAL_STATUS ( 'not_yet_approved' ) ;
#35 = ADVANCED_FACE ( 'NONE', ( #168 ), #121, .T. ) ;
#36 = AXIS2_PLACEMENT_3D ( 'NONE', #46, #161, #43 ) ;
#37 = CARTESIAN_POINT ( 'NONE',  ( 12.69999999999999900, 1.555301434917138400E-015, 1.500000000000000000 ) ) ;
#38 = EDGE_LOOP ( 'NONE', ( #39, #96, #127, #140 ) ) ;
#39 = ORIENTED_EDGE ( 'NONE', *, *, #6, .F. ) ;
#40 = COORDINATED_UNIVERSAL_TIME_OFFSET ( 5, 0, .BEHIND. ) ;
#41 = APPROVAL_PERSON_ORGANIZATION ( #112, #23, #30 ) ;
#42 = CC_DESIGN_PERSON_AND_ORGANIZATION_ASSIGNMENT ( #167, #49, ( #95 ) ) ;
#43 = DIRECTION ( 'NONE',  ( 1.000000000000000000, 0.0000000000000000000, 0.0000000000000000000 ) ) ;
#44 = SECURITY_CLASSIFICATION ( '', '', #24 ) ;
#45 = APPROVAL_STATUS ( 'not_yet_approved' ) ;
#46 = CARTESIAN_POINT ( 'NONE',  ( 0.0000000000000000000, 0.0000000000000000000, 1.500000000000000000 ) ) ;
#47 = COORDINATED_UNIVERSAL_TIME_OFFSET ( 5, 0, .BEHIND. ) ;
#48 = ORIENTED_EDGE ( 'NONE', *, *, #175, .T. ) ;
#49 = PERSON_AND_ORGANIZATION_ROLE ( 'design_supplier' ) ;
#50 = CARTESIAN_POINT ( 'NONE',  ( -12.69999999999999900, 0.0000000000000000000, 1.500000000000000000 ) ) ;
#51 =( LENGTH_UNIT ( ) NAMED_UNIT ( * ) SI_UNIT ( .MILLI., .METRE. ) );
#52 = AXIS2_PLACEMENT_3D ( 'NONE', #104, #141, #101 ) ;
#53 = CC_DESIGN_PERSON_AND_ORGANIZATION_ASSIGNMENT ( #162, #92, ( #95 ) ) ;
#54 = ORIENTED_EDGE ( 'NONE', *, *, #27, .T. ) ;
#55 = CALENDAR_DATE ( 2019, 3, 1 ) ;
#56 = APPROVAL ( #64, 'UNSPECIFIED' ) ;
#57 = APPROVAL_DATE_TIME ( #144, #97 ) ;
#58 = EDGE_LOOP ( 'NONE', ( #48, #73 ) ) ;
#59 = CC_DESIGN_DATE_AND_TIME_ASSIGNMENT ( #71, #100, ( #3 ) ) ;
#60 = VECTOR ( 'NONE', #87, 1000.000000000000000 ) ;
#61 =( NAMED_UNIT ( * ) SI_UNIT ( $, .STERADIAN. ) SOLID_ANGLE_UNIT ( ) );
#62 = CC_DESIGN_PERSON_AND_ORGANIZATION_ASSIGNMENT ( #5, #8, ( #44 ) ) ;
#63 = DIRECTION ( 'NONE',  ( -1.000000000000000000, 0.0000000000000000000, 0.0000000000000000000 ) ) ;
#64 = APPROVAL_STATUS ( 'not_yet_approved' ) ;
#65 = CARTESIAN_POINT ( 'NONE',  ( -12.69999999999999900, 0.0000000000000000000, 1.500000000000000000 ) ) ;
#66 =( GEOMETRIC_REPRESENTATION_CONTEXT ( 3 ) GLOBAL_UNCERTAINTY_ASSIGNED_CONTEXT ( ( #134 ) ) GLOBAL_UNIT_ASSIGNED_CONTEXT ( ( #51, #78, #61 ) ) REPRESENTATION_CONTEXT ( 'NONE', 'WORKASPACE' ) );
#67 = AXIS2_PLACEMENT_3D ( 'NONE', #115, #4, #32 ) ;
#68 = ADVANCED_BREP_SHAPE_REPRESENTATION ( 'Web Model 11862_11862', ( #82, #26 ), #66 ) ;
#69 = CC_DESIGN_DATE_AND_TIME_ASSIGNMENT ( #153, #9, ( #44 ) ) ;
#70 = CALENDAR_DATE ( 2019, 3, 1 ) ;
#71 = DATE_AND_TIME ( #83, #148 ) ;
#72 = AXIS2_PLACEMENT_3D ( 'NONE', #160, #89, #91 ) ;
#73 = ORIENTED_EDGE ( 'NONE', *, *, #158, .T. ) ;
#74 = CC_DESIGN_APPROVAL ( #56, ( #44 ) ) ;
#75 = CC_DESIGN_PERSON_AND_ORGANIZATION_ASSIGNMENT ( #2, #137, ( #3 ) ) ;
#76 = APPLICATION_CONTEXT ( 'configuration controlled 3d designs of mechanical parts and assemblies' ) ;
#77 = CARTESIAN_POINT ( 'NONE',  ( 0.0000000000000000000, 0.0000000000000000000, -1.500000000000000000 ) ) ;
#78 =( NAMED_UNIT ( * ) PLANE_ANGLE_UNIT ( ) SI_UNIT ( $, .RADIAN. ) );
#79 = PRODUCT_DEFINITION_SHAPE ( 'NONE', 'NONE',  #3 ) ;
#80 = APPROVAL_PERSON_ORGANIZATION ( #33, #56, #12 ) ;
#81 = CALENDAR_DATE ( 2019, 3, 1 ) ;
#82 = MANIFOLD_SOLID_BREP ( 'Boss-Extrude1', #157 ) ;
#83 = CALENDAR_DATE ( 2019, 3, 1 ) ;
#84 = COORDINATED_UNIVERSAL_TIME_OFFSET ( 5, 0, .BEHIND. ) ;
#85 = AXIS2_PLACEMENT_3D ( 'NONE', #135, #90, #114 ) ;
#86 = APPLICATION_CONTEXT ( 'configuration controlled 3d designs of mechanical parts and assemblies' ) ;
#87 = DIRECTION ( 'NONE',  ( -0.0000000000000000000, -0.0000000000000000000, -1.000000000000000000 ) ) ;
#88 = LINE ( 'NONE', #65, #60 ) ;
#89 = DIRECTION ( 'NONE',  ( 0.0000000000000000000, 0.0000000000000000000, 1.000000000000000000 ) ) ;
#90 = DIRECTION ( 'NONE',  ( -0.0000000000000000000, -0.0000000000000000000, -1.000000000000000000 ) ) ;
#91 = DIRECTION ( 'NONE',  ( 1.000000000000000000, 0.0000000000000000000, 0.0000000000000000000 ) ) ;
#92 = PERSON_AND_ORGANIZATION_ROLE ( 'creator' ) ;
#93 = DIRECTION ( 'NONE',  ( -0.0000000000000000000, -0.0000000000000000000, -1.000000000000000000 ) ) ;
#94 = VECTOR ( 'NONE', #93, 1000.000000000000000 ) ;
#95 = PRODUCT_DEFINITION_FORMATION_WITH_SPECIFIED_SOURCE ( 'ANY', '', #18, .NOT_KNOWN. ) ;
#96 = ORIENTED_EDGE ( 'NONE', *, *, #175, .F. ) ;
#97 = APPROVAL ( #45, 'UNSPECIFIED' ) ;
#98 = CYLINDRICAL_SURFACE ( 'NONE', #106, 12.69999999999999900 ) ;
#99 = APPROVAL_DATE_TIME ( #142, #56 ) ;
#100 = DATE_TIME_ROLE ( 'creation_date' ) ;
#101 = DIRECTION ( 'NONE',  ( 1.000000000000000000, 0.0000000000000000000, -0.0000000000000000000 ) ) ;
#102 = EDGE_LOOP ( 'NONE', ( #16, #122 ) ) ;
#103 = PLANE ( 'NONE',  #111 ) ;
#104 = CARTESIAN_POINT ( 'NONE',  ( 0.0000000000000000000, 0.0000000000000000000, 1.500000000000000000 ) ) ;
#105 = CYLINDRICAL_SURFACE ( 'NONE', #85, 12.69999999999999900 ) ;
#106 = AXIS2_PLACEMENT_3D ( 'NONE', #21, #133, #63 ) ;
#107 = CIRCLE ( 'NONE', #36, 12.69999999999999900 ) ;
#108 = ORIENTED_EDGE ( 'NONE', *, *, #6, .T. ) ;
#109 = EDGE_LOOP ( 'NONE', ( #113, #108, #54, #143 ) ) ;
#110 = DATE_AND_TIME ( #151, #7 ) ;
#111 = AXIS2_PLACEMENT_3D ( 'NONE', #132, #22, #19 ) ;
#112 = PERSON_AND_ORGANIZATION ( #165, #117 ) ;
#113 = ORIENTED_EDGE ( 'NONE', *, *, #158, .F. ) ;
#114 = DIRECTION ( 'NONE',  ( -1.000000000000000000, 0.0000000000000000000, 0.0000000000000000000 ) ) ;
#115 = CARTESIAN_POINT ( 'NONE',  ( 0.0000000000000000000, 0.0000000000000000000, 1.500000000000000000 ) ) ;
#116 = LOCAL_TIME ( 16, 46, 36.00000000000000000, #154 ) ;
#117 = ORGANIZATION ( 'UNSPECIFIED', 'UNSPECIFIED', '' ) ;
#118 = CARTESIAN_POINT ( 'NONE',  ( 12.69999999999999900, 1.555301434917138400E-015, -1.500000000000000000 ) ) ;
#119 = MECHANICAL_CONTEXT ( 'NONE', #76, 'mechanical' ) ;
#120 = DIRECTION ( 'NONE',  ( 0.0000000000000000000, 0.0000000000000000000, 1.000000000000000000 ) ) ;
#121 = PLANE ( 'NONE',  #52 ) ;
#122 = ORIENTED_EDGE ( 'NONE', *, *, #27, .F. ) ;
#123 = ADVANCED_FACE ( 'NONE', ( #20 ), #98, .T. ) ;
#124 = PERSON_AND_ORGANIZATION ( #165, #117 ) ;
#125 = PRODUCT_RELATED_PRODUCT_CATEGORY ( 'detail', '', ( #18 ) ) ;
#126 = FACE_OUTER_BOUND ( 'NONE', #38, .T. ) ;
#127 = ORIENTED_EDGE ( 'NONE', *, *, #17, .T. ) ;
#128 = VERTEX_POINT ( 'NONE', #136 ) ;
#129 = DESIGN_CONTEXT ( 'detailed design', #86, 'design' ) ;
#130 = DIRECTION ( 'NONE',  ( 0.0000000000000000000, 0.0000000000000000000, 1.000000000000000000 ) ) ;
#131 = APPLICATION_PROTOCOL_DEFINITION ( 'international standard', 'config_control_design', 1994, #76 ) ;
#132 = CARTESIAN_POINT ( 'NONE',  ( 0.0000000000000000000, 0.0000000000000000000, -1.500000000000000000 ) ) ;
#133 = DIRECTION ( 'NONE',  ( -0.0000000000000000000, -0.0000000000000000000, -1.000000000000000000 ) ) ;
#134 = UNCERTAINTY_MEASURE_WITH_UNIT (LENGTH_MEASURE( 1.000000000000000100E-005 ), #51, 'distance_accuracy_value', 'NONE');
#135 = CARTESIAN_POINT ( 'NONE',  ( 0.0000000000000000000, 0.0000000000000000000, 1.500000000000000000 ) ) ;
#136 = CARTESIAN_POINT ( 'NONE',  ( 12.69999999999999900, 1.555301434917138400E-015, 1.500000000000000000 ) ) ;
#137 = PERSON_AND_ORGANIZATION_ROLE ( 'creator' ) ;
#138 = LOCAL_TIME ( 16, 46, 36.00000000000000000, #84 ) ;
#139 = CC_DESIGN_PERSON_AND_ORGANIZATION_ASSIGNMENT ( #124, #169, ( #18 ) ) ;
#140 = ORIENTED_EDGE ( 'NONE', *, *, #171, .T. ) ;
#141 = DIRECTION ( 'NONE',  ( 0.0000000000000000000, 0.0000000000000000000, 1.000000000000000000 ) ) ;
#142 = DATE_AND_TIME ( #70, #147 ) ;
#143 = ORIENTED_EDGE ( 'NONE', *, *, #17, .F. ) ;
#144 = DATE_AND_TIME ( #81, #116 ) ;
#145 = AXIS2_PLACEMENT_3D ( 'NONE', #77, #130, #170 ) ;
#146 = VERTEX_POINT ( 'NONE', #118 ) ;
#147 = LOCAL_TIME ( 16, 46, 36.00000000000000000, #40 ) ;
#148 = LOCAL_TIME ( 16, 46, 36.00000000000000000, #156 ) ;
#149 = CIRCLE ( 'NONE', #67, 12.69999999999999900 ) ;
#150 = APPROVAL_ROLE ( '' ) ;
#151 = CALENDAR_DATE ( 2019, 3, 1 ) ;
#152 = CC_DESIGN_APPROVAL ( #97, ( #95 ) ) ;
#153 = DATE_AND_TIME ( #55, #138 ) ;
#154 = COORDINATED_UNIVERSAL_TIME_OFFSET ( 5, 0, .BEHIND. ) ;
#155 = SHAPE_DEFINITION_REPRESENTATION ( #79, #68 ) ;
#156 = COORDINATED_UNIVERSAL_TIME_OFFSET ( 5, 0, .BEHIND. ) ;
#157 = CLOSED_SHELL ( 'NONE', ( #123, #173, #35, #164 ) ) ;
#158 = EDGE_CURVE ( 'NONE', #128, #163, #149, .T. ) ;
#159 = DIRECTION ( 'NONE',  ( 1.000000000000000000, 0.0000000000000000000, 0.0000000000000000000 ) ) ;
#160 = CARTESIAN_POINT ( 'NONE',  ( 0.0000000000000000000, 0.0000000000000000000, -1.500000000000000000 ) ) ;
#161 = DIRECTION ( 'NONE',  ( 0.0000000000000000000, 0.0000000000000000000, 1.000000000000000000 ) ) ;
#162 = PERSON_AND_ORGANIZATION ( #165, #117 ) ;
#163 = VERTEX_POINT ( 'NONE', #50 ) ;
#164 = ADVANCED_FACE ( 'NONE', ( #25 ), #103, .F. ) ;
#165 = PERSON ( 'UNSPECIFIED', 'UNSPECIFIED', 'UNSPECIFIED', ('UNSPECIFIED'), ('UNSPECIFIED'), ('UNSPECIFIED') ) ;
#166 = CIRCLE ( 'NONE', #145, 12.69999999999999900 ) ;
#167 = PERSON_AND_ORGANIZATION ( #165, #117 ) ;
#168 = FACE_OUTER_BOUND ( 'NONE', #58, .T. ) ;
#169 = PERSON_AND_ORGANIZATION_ROLE ( 'design_owner' ) ;
#170 = DIRECTION ( 'NONE',  ( 1.000000000000000000, 0.0000000000000000000, 0.0000000000000000000 ) ) ;
#171 = EDGE_CURVE ( 'NONE', #28, #146, #166, .T. ) ;
#172 = APPLICATION_PROTOCOL_DEFINITION ( 'international standard', 'config_control_design', 1994, #86 ) ;
#173 = ADVANCED_FACE ( 'NONE', ( #126 ), #105, .T. ) ;
#174 = PERSON_AND_ORGANIZATION ( #165, #117 ) ;
#175 = EDGE_CURVE ( 'NONE', #163, #128, #107, .T. ) ;
ENDSEC;
END-ISO-10303-21;
