ISO-10303-21;
HEADER;
FILE_DESCRIPTION (( 'STEP AP203' ),
    '1' );
FILE_NAME ('Web Model 45256.STEP',
    '2017-01-31T15:17:32',
    ( '' ),
    ( '' ),
    'SwSTEP 2.0',
    'SolidWorks 2016',
    '' );
FILE_SCHEMA (( 'CONFIG_CONTROL_DESIGN' ));
ENDSEC;

DATA;
#1 = EDGE_LOOP ( 'NONE', ( #124, #167, #99, #77 ) ) ;
#2 = UNCERTAINTY_MEASURE_WITH_UNIT (LENGTH_MEASURE( 1.000000000000000100E-005 ), #37, 'distance_accuracy_value', 'NONE');
#3 = ADVANCED_FACE ( 'NONE', ( #108 ), #135, .T. ) ;
#4 = DIRECTION ( 'NONE',  ( 0.0000000000000000000, 0.0000000000000000000, 1.000000000000000000 ) ) ;
#5 = APPROVAL ( #175, 'UNSPECIFIED' ) ;
#6 = FACE_OUTER_BOUND ( 'NONE', #34, .T. ) ;
#7 = PERSON_AND_ORGANIZATION ( #144, #82 ) ;
#8 = PRODUCT_DEFINITION_FORMATION_WITH_SPECIFIED_SOURCE ( 'ANY', '', #119, .NOT_KNOWN. ) ;
#9 = PERSON_AND_ORGANIZATION_ROLE ( 'creator' ) ;
#10 = AXIS2_PLACEMENT_3D ( 'NONE', #164, #4, #51 ) ;
#11 = APPROVAL_DATE_TIME ( #72, #43 ) ;
#12 = ADVANCED_FACE ( 'NONE', ( #106 ), #143, .F. ) ;
#13 = DIRECTION ( 'NONE',  ( 0.0000000000000000000, 0.0000000000000000000, 1.000000000000000000 ) ) ;
#14 = DATE_AND_TIME ( #94, #17 ) ;
#15 = DIRECTION ( 'NONE',  ( 0.0000000000000000000, 0.0000000000000000000, 1.000000000000000000 ) ) ;
#16 = PERSON_AND_ORGANIZATION ( #144, #82 ) ;
#17 = LOCAL_TIME ( 10, 17, 32.00000000000000000, #70 ) ;
#18 = MANIFOLD_SOLID_BREP ( 'Extrude1', #21 ) ;
#19 = PERSON_AND_ORGANIZATION ( #144, #82 ) ;
#20 = AXIS2_PLACEMENT_3D ( 'NONE', #71, #15, #89 ) ;
#21 = CLOSED_SHELL ( 'NONE', ( #81, #3, #12, #151 ) ) ;
#22 = LINE ( 'NONE', #68, #171 ) ;
#23 = VERTEX_POINT ( 'NONE', #86 ) ;
#24 = DIRECTION ( 'NONE',  ( 1.000000000000000000, 0.0000000000000000000, 0.0000000000000000000 ) ) ;
#25 = DIRECTION ( 'NONE',  ( 0.0000000000000000000, 0.0000000000000000000, 1.000000000000000000 ) ) ;
#26 = DIRECTION ( 'NONE',  ( 1.000000000000000000, 0.0000000000000000000, -0.0000000000000000000 ) ) ;
#27 = CC_DESIGN_DATE_AND_TIME_ASSIGNMENT ( #14, #174, ( #169 ) ) ;
#28 = CARTESIAN_POINT ( 'NONE',  ( 0.0000000000000000000, 0.0000000000000000000, -2.000000000000000000 ) ) ;
#29 = APPROVAL_PERSON_ORGANIZATION ( #42, #5, #112 ) ;
#30 = MECHANICAL_CONTEXT ( 'NONE', #131, 'mechanical' ) ;
#31 = ORIENTED_EDGE ( 'NONE', *, *, #46, .T. ) ;
#32 = CYLINDRICAL_SURFACE ( 'NONE', #65, 5.000000000000000000 ) ;
#33 = EDGE_CURVE ( 'NONE', #105, #155, #55, .T. ) ;
#34 = EDGE_LOOP ( 'NONE', ( #31, #160 ) ) ;
#35 = CC_DESIGN_APPROVAL ( #93, ( #8 ) ) ;
#36 = CIRCLE ( 'NONE', #56, 5.000000000000000000 ) ;
#37 =( LENGTH_UNIT ( ) NAMED_UNIT ( * ) SI_UNIT ( .MILLI., .METRE. ) );
#38 = EDGE_LOOP ( 'NONE', ( #54, #140 ) ) ;
#39 = CARTESIAN_POINT ( 'NONE',  ( 0.0000000000000000000, 0.0000000000000000000, -2.000000000000000000 ) ) ;
#40 = PERSON_AND_ORGANIZATION ( #144, #82 ) ;
#41 = EDGE_CURVE ( 'NONE', #122, #105, #22, .T. ) ;
#42 = PERSON_AND_ORGANIZATION ( #144, #82 ) ;
#43 = APPROVAL ( #60, 'UNSPECIFIED' ) ;
#44 = LOCAL_TIME ( 10, 17, 32.00000000000000000, #88 ) ;
#45 = SHAPE_DEFINITION_REPRESENTATION ( #48, #57 ) ;
#46 = EDGE_CURVE ( 'NONE', #155, #105, #109, .T. ) ;
#47 = APPLICATION_PROTOCOL_DEFINITION ( 'international standard', 'config_control_design', 1994, #96 ) ;
#48 = PRODUCT_DEFINITION_SHAPE ( 'NONE', 'NONE',  #169 ) ;
#49 = CARTESIAN_POINT ( 'NONE',  ( -5.000000000000000000, 6.123233995736766300E-016, -2.000000000000000000 ) ) ;
#50 = DIRECTION ( 'NONE',  ( 0.0000000000000000000, 0.0000000000000000000, 1.000000000000000000 ) ) ;
#51 = DIRECTION ( 'NONE',  ( 1.000000000000000000, 0.0000000000000000000, 0.0000000000000000000 ) ) ;
#52 = CC_DESIGN_PERSON_AND_ORGANIZATION_ASSIGNMENT ( #19, #130, ( #119 ) ) ;
#53 = DIRECTION ( 'NONE',  ( 1.000000000000000000, 0.0000000000000000000, 0.0000000000000000000 ) ) ;
#54 = ORIENTED_EDGE ( 'NONE', *, *, #58, .F. ) ;
#55 = CIRCLE ( 'NONE', #139, 5.000000000000000000 ) ;
#56 = AXIS2_PLACEMENT_3D ( 'NONE', #162, #85, #24 ) ;
#57 = ADVANCED_BREP_SHAPE_REPRESENTATION ( 'Web Model 45256', ( #18, #158 ), #75 ) ;
#58 = EDGE_CURVE ( 'NONE', #23, #122, #161, .T. ) ;
#59 = EDGE_LOOP ( 'NONE', ( #118, #146, #148, #84 ) ) ;
#60 = APPROVAL_STATUS ( 'not_yet_approved' ) ;
#61 = CC_DESIGN_PERSON_AND_ORGANIZATION_ASSIGNMENT ( #113, #97, ( #8 ) ) ;
#62 = CARTESIAN_POINT ( 'NONE',  ( 0.0000000000000000000, 0.0000000000000000000, 0.0000000000000000000 ) ) ;
#63 = CALENDAR_DATE ( 2017, 31, 1 ) ;
#64 = CARTESIAN_POINT ( 'NONE',  ( 5.000000000000000000, 0.0000000000000000000, -2.000000000000000000 ) ) ;
#65 = AXIS2_PLACEMENT_3D ( 'NONE', #28, #153, #133 ) ;
#66 = CARTESIAN_POINT ( 'NONE',  ( -5.000000000000000000, 6.123233995736766300E-016, 0.0000000000000000000 ) ) ;
#67 = PLANE ( 'NONE',  #111 ) ;
#68 = CARTESIAN_POINT ( 'NONE',  ( -5.000000000000000000, 6.123233995736766300E-016, -2.000000000000000000 ) ) ;
#69 = CARTESIAN_POINT ( 'NONE',  ( 0.0000000000000000000, 0.0000000000000000000, 0.0000000000000000000 ) ) ;
#70 = COORDINATED_UNIVERSAL_TIME_OFFSET ( 5, 0, .BEHIND. ) ;
#71 = CARTESIAN_POINT ( 'NONE',  ( 0.0000000000000000000, 0.0000000000000000000, -2.000000000000000000 ) ) ;
#72 = DATE_AND_TIME ( #63, #147 ) ;
#73 = APPROVAL_DATE_TIME ( #79, #93 ) ;
#74 = CC_DESIGN_APPROVAL ( #43, ( #123 ) ) ;
#75 =( GEOMETRIC_REPRESENTATION_CONTEXT ( 3 ) GLOBAL_UNCERTAINTY_ASSIGNED_CONTEXT ( ( #2 ) ) GLOBAL_UNIT_ASSIGNED_CONTEXT ( ( #37, #142, #103 ) ) REPRESENTATION_CONTEXT ( 'NONE', 'WORKASPACE' ) );
#76 = CC_DESIGN_PERSON_AND_ORGANIZATION_ASSIGNMENT ( #40, #80, ( #8 ) ) ;
#77 = ORIENTED_EDGE ( 'NONE', *, *, #33, .F. ) ;
#78 = SECURITY_CLASSIFICATION_LEVEL ( 'unclassified' ) ;
#79 = DATE_AND_TIME ( #149, #44 ) ;
#80 = PERSON_AND_ORGANIZATION_ROLE ( 'design_supplier' ) ;
#81 = ADVANCED_FACE ( 'NONE', ( #95 ), #32, .T. ) ;
#82 = ORGANIZATION ( 'UNSPECIFIED', 'UNSPECIFIED', '' ) ;
#83 = DATE_AND_TIME ( #134, #157 ) ;
#84 = ORIENTED_EDGE ( 'NONE', *, *, #92, .F. ) ;
#85 = DIRECTION ( 'NONE',  ( 0.0000000000000000000, 0.0000000000000000000, 1.000000000000000000 ) ) ;
#86 = CARTESIAN_POINT ( 'NONE',  ( 5.000000000000000000, 0.0000000000000000000, -2.000000000000000000 ) ) ;
#87 = CC_DESIGN_PERSON_AND_ORGANIZATION_ASSIGNMENT ( #7, #136, ( #123 ) ) ;
#88 = COORDINATED_UNIVERSAL_TIME_OFFSET ( 5, 0, .BEHIND. ) ;
#89 = DIRECTION ( 'NONE',  ( 1.000000000000000000, 0.0000000000000000000, 0.0000000000000000000 ) ) ;
#90 = COORDINATED_UNIVERSAL_TIME_OFFSET ( 5, 0, .BEHIND. ) ;
#91 = COORDINATED_UNIVERSAL_TIME_OFFSET ( 5, 0, .BEHIND. ) ;
#92 = EDGE_CURVE ( 'NONE', #23, #155, #168, .T. ) ;
#93 = APPROVAL ( #173, 'UNSPECIFIED' ) ;
#94 = CALENDAR_DATE ( 2017, 31, 1 ) ;
#95 = FACE_OUTER_BOUND ( 'NONE', #59, .T. ) ;
#96 = APPLICATION_CONTEXT ( 'configuration controlled 3d designs of mechanical parts and assemblies' ) ;
#97 = PERSON_AND_ORGANIZATION_ROLE ( 'creator' ) ;
#98 = CC_DESIGN_SECURITY_CLASSIFICATION ( #123, ( #8 ) ) ;
#99 = ORIENTED_EDGE ( 'NONE', *, *, #92, .T. ) ;
#100 = CC_DESIGN_DATE_AND_TIME_ASSIGNMENT ( #83, #114, ( #123 ) ) ;
#101 = DIRECTION ( 'NONE',  ( 0.0000000000000000000, 0.0000000000000000000, 1.000000000000000000 ) ) ;
#102 = DIRECTION ( 'NONE',  ( 0.0000000000000000000, 0.0000000000000000000, 1.000000000000000000 ) ) ;
#103 =( NAMED_UNIT ( * ) SI_UNIT ( $, .STERADIAN. ) SOLID_ANGLE_UNIT ( ) );
#104 = EDGE_CURVE ( 'NONE', #122, #23, #36, .T. ) ;
#105 = VERTEX_POINT ( 'NONE', #66 ) ;
#106 = FACE_OUTER_BOUND ( 'NONE', #38, .T. ) ;
#107 = CC_DESIGN_PERSON_AND_ORGANIZATION_ASSIGNMENT ( #166, #9, ( #169 ) ) ;
#108 = FACE_OUTER_BOUND ( 'NONE', #1, .T. ) ;
#109 = CIRCLE ( 'NONE', #10, 5.000000000000000000 ) ;
#110 = APPROVAL_ROLE ( '' ) ;
#111 = AXIS2_PLACEMENT_3D ( 'NONE', #152, #163, #26 ) ;
#112 = APPROVAL_ROLE ( '' ) ;
#113 = PERSON_AND_ORGANIZATION ( #144, #82 ) ;
#114 = DATE_TIME_ROLE ( 'classification_date' ) ;
#115 = APPROVAL_DATE_TIME ( #137, #5 ) ;
#116 = DESIGN_CONTEXT ( 'detailed design', #96, 'design' ) ;
#117 = CARTESIAN_POINT ( 'NONE',  ( 0.0000000000000000000, 0.0000000000000000000, -2.000000000000000000 ) ) ;
#118 = ORIENTED_EDGE ( 'NONE', *, *, #58, .T. ) ;
#119 = PRODUCT ( 'Web Model 45256', 'Web Model 45256', '', ( #30 ) ) ;
#120 = PRODUCT_RELATED_PRODUCT_CATEGORY ( 'detail', '', ( #119 ) ) ;
#121 = DIRECTION ( 'NONE',  ( 1.000000000000000000, 0.0000000000000000000, 0.0000000000000000000 ) ) ;
#122 = VERTEX_POINT ( 'NONE', #49 ) ;
#123 = SECURITY_CLASSIFICATION ( '', '', #78 ) ;
#124 = ORIENTED_EDGE ( 'NONE', *, *, #41, .F. ) ;
#125 = APPROVAL_ROLE ( '' ) ;
#126 = APPROVAL_PERSON_ORGANIZATION ( #156, #93, #110 ) ;
#127 = DIRECTION ( 'NONE',  ( 0.0000000000000000000, 0.0000000000000000000, 1.000000000000000000 ) ) ;
#128 = APPROVAL_PERSON_ORGANIZATION ( #16, #43, #125 ) ;
#129 = CARTESIAN_POINT ( 'NONE',  ( 5.000000000000000000, 0.0000000000000000000, 0.0000000000000000000 ) ) ;
#130 = PERSON_AND_ORGANIZATION_ROLE ( 'design_owner' ) ;
#131 = APPLICATION_CONTEXT ( 'configuration controlled 3d designs of mechanical parts and assemblies' ) ;
#132 = DIRECTION ( 'NONE',  ( 1.000000000000000000, 0.0000000000000000000, 0.0000000000000000000 ) ) ;
#133 = DIRECTION ( 'NONE',  ( 1.000000000000000000, 0.0000000000000000000, 0.0000000000000000000 ) ) ;
#134 = CALENDAR_DATE ( 2017, 31, 1 ) ;
#135 = CYLINDRICAL_SURFACE ( 'NONE', #172, 5.000000000000000000 ) ;
#136 = PERSON_AND_ORGANIZATION_ROLE ( 'classification_officer' ) ;
#137 = DATE_AND_TIME ( #170, #159 ) ;
#138 = APPLICATION_PROTOCOL_DEFINITION ( 'international standard', 'config_control_design', 1994, #131 ) ;
#139 = AXIS2_PLACEMENT_3D ( 'NONE', #69, #102, #53 ) ;
#140 = ORIENTED_EDGE ( 'NONE', *, *, #104, .F. ) ;
#141 = VECTOR ( 'NONE', #25, 1000.000000000000000 ) ;
#142 =( NAMED_UNIT ( * ) PLANE_ANGLE_UNIT ( ) SI_UNIT ( $, .RADIAN. ) );
#143 = PLANE ( 'NONE',  #154 ) ;
#144 = PERSON ( 'UNSPECIFIED', 'UNSPECIFIED', 'UNSPECIFIED', ('UNSPECIFIED'), ('UNSPECIFIED'), ('UNSPECIFIED') ) ;
#145 = CC_DESIGN_APPROVAL ( #5, ( #169 ) ) ;
#146 = ORIENTED_EDGE ( 'NONE', *, *, #41, .T. ) ;
#147 = LOCAL_TIME ( 10, 17, 32.00000000000000000, #91 ) ;
#148 = ORIENTED_EDGE ( 'NONE', *, *, #46, .F. ) ;
#149 = CALENDAR_DATE ( 2017, 31, 1 ) ;
#150 = COORDINATED_UNIVERSAL_TIME_OFFSET ( 5, 0, .BEHIND. ) ;
#151 = ADVANCED_FACE ( 'NONE', ( #6 ), #67, .T. ) ;
#152 = CARTESIAN_POINT ( 'NONE',  ( 0.0000000000000000000, 0.0000000000000000000, 0.0000000000000000000 ) ) ;
#153 = DIRECTION ( 'NONE',  ( 0.0000000000000000000, 0.0000000000000000000, 1.000000000000000000 ) ) ;
#154 = AXIS2_PLACEMENT_3D ( 'NONE', #117, #50, #165 ) ;
#155 = VERTEX_POINT ( 'NONE', #129 ) ;
#156 = PERSON_AND_ORGANIZATION ( #144, #82 ) ;
#157 = LOCAL_TIME ( 10, 17, 32.00000000000000000, #150 ) ;
#158 = AXIS2_PLACEMENT_3D ( 'NONE', #62, #127, #132 ) ;
#159 = LOCAL_TIME ( 10, 17, 32.00000000000000000, #90 ) ;
#160 = ORIENTED_EDGE ( 'NONE', *, *, #33, .T. ) ;
#161 = CIRCLE ( 'NONE', #20, 5.000000000000000000 ) ;
#162 = CARTESIAN_POINT ( 'NONE',  ( 0.0000000000000000000, 0.0000000000000000000, -2.000000000000000000 ) ) ;
#163 = DIRECTION ( 'NONE',  ( 0.0000000000000000000, 0.0000000000000000000, 1.000000000000000000 ) ) ;
#164 = CARTESIAN_POINT ( 'NONE',  ( 0.0000000000000000000, 0.0000000000000000000, 0.0000000000000000000 ) ) ;
#165 = DIRECTION ( 'NONE',  ( 1.000000000000000000, 0.0000000000000000000, -0.0000000000000000000 ) ) ;
#166 = PERSON_AND_ORGANIZATION ( #144, #82 ) ;
#167 = ORIENTED_EDGE ( 'NONE', *, *, #104, .T. ) ;
#168 = LINE ( 'NONE', #64, #141 ) ;
#169 = PRODUCT_DEFINITION ( 'UNKNOWN', '', #8, #116 ) ;
#170 = CALENDAR_DATE ( 2017, 31, 1 ) ;
#171 = VECTOR ( 'NONE', #101, 1000.000000000000000 ) ;
#172 = AXIS2_PLACEMENT_3D ( 'NONE', #39, #13, #121 ) ;
#173 = APPROVAL_STATUS ( 'not_yet_approved' ) ;
#174 = DATE_TIME_ROLE ( 'creation_date' ) ;
#175 = APPROVAL_STATUS ( 'not_yet_approved' ) ;
ENDSEC;
END-ISO-10303-21;
