ISO-10303-21;
HEADER;
FILE_DESCRIPTION (( 'STEP AP203' ),
    '1' );
FILE_NAME ('Web Model 43365_20974.step',
    '2022-03-15T15:22:02',
    ( '' ),
    ( '' ),
    'SwSTEP 2.0',
    'SolidWorks 2021',
    '' );
FILE_SCHEMA (( 'CONFIG_CONTROL_DESIGN' ));
ENDSEC;

DATA;
#1 = SECURITY_CLASSIFICATION ( '', '', #51 ) ;
#2 = PRODUCT_DEFINITION_FORMATION_WITH_SPECIFIED_SOURCE ( 'ANY', '', #135, .NOT_KNOWN. ) ;
#3 = DESIGN_CONTEXT ( 'detailed design', #55, 'design' ) ;
#4 = DIRECTION ( 'NONE',  ( 0.000000000000000000, 0.000000000000000000, 1.000000000000000000 ) ) ;
#5 = FACE_OUTER_BOUND ( 'NONE', #97, .T. ) ;
#6 = DIRECTION ( 'NONE',  ( 0.000000000000000000, 0.000000000000000000, 1.000000000000000000 ) ) ;
#7 = FACE_OUTER_BOUND ( 'NONE', #14, .T. ) ;
#8 = PRODUCT_RELATED_PRODUCT_CATEGORY ( 'detail', '', ( #135 ) ) ;
#9 = PERSON_AND_ORGANIZATION ( #41, #72 ) ;
#10 = APPLICATION_PROTOCOL_DEFINITION ( 'international standard', 'config_control_design', 1994, #55 ) ;
#11 = DIRECTION ( 'NONE',  ( 1.000000000000000000, 0.000000000000000000, 0.000000000000000000 ) ) ;
#12 = AXIS2_PLACEMENT_3D ( 'NONE', #57, #153, #27 ) ;
#13 = CALENDAR_DATE ( 2022, 15, 3 ) ;
#14 = EDGE_LOOP ( 'NONE', ( #139, #82, #109, #137 ) ) ;
#15 =( GEOMETRIC_REPRESENTATION_CONTEXT ( 3 ) GLOBAL_UNCERTAINTY_ASSIGNED_CONTEXT ( ( #44 ) ) GLOBAL_UNIT_ASSIGNED_CONTEXT ( ( #20, #158, #32 ) ) REPRESENTATION_CONTEXT ( 'NONE', 'WORKASPACE' ) );
#16 = PRODUCT_DEFINITION_SHAPE ( 'NONE', 'NONE',  #120 ) ;
#17 = ADVANCED_FACE ( 'NONE', ( #88 ), #155, .T. ) ;
#18 = DIRECTION ( 'NONE',  ( 1.000000000000000000, 0.000000000000000000, 0.000000000000000000 ) ) ;
#19 = PLANE ( 'NONE',  #124 ) ;
#20 =( LENGTH_UNIT ( ) NAMED_UNIT ( * ) SI_UNIT ( .MILLI., .METRE. ) );
#21 = PERSON_AND_ORGANIZATION_ROLE ( 'creator' ) ;
#22 = PERSON_AND_ORGANIZATION ( #41, #72 ) ;
#23 = AXIS2_PLACEMENT_3D ( 'NONE', #103, #64, #11 ) ;
#24 = VERTEX_POINT ( 'NONE', #141 ) ;
#25 = CARTESIAN_POINT ( 'NONE',  ( 0.000000000000000000, 0.000000000000000000, 0.5000000000000000000 ) ) ;
#26 = ADVANCED_BREP_SHAPE_REPRESENTATION ( 'Web Model 43365_20974', ( #74, #23 ), #15 ) ;
#27 = DIRECTION ( 'NONE',  ( -1.000000000000000000, 0.000000000000000000, 0.000000000000000000 ) ) ;
#28 = ORIENTED_EDGE ( 'NONE', *, *, #108, .F. ) ;
#29 = VECTOR ( 'NONE', #143, 1000.000000000000000 ) ;
#30 = ADVANCED_FACE ( 'NONE', ( #5 ), #19, .F. ) ;
#31 = CARTESIAN_POINT ( 'NONE',  ( 0.000000000000000000, 0.000000000000000000, 0.000000000000000000 ) ) ;
#32 =( NAMED_UNIT ( * ) SI_UNIT ( $, .STERADIAN. ) SOLID_ANGLE_UNIT ( ) );
#33 = DATE_AND_TIME ( #175, #136 ) ;
#34 = PERSON_AND_ORGANIZATION_ROLE ( 'classification_officer' ) ;
#35 = APPROVAL_ROLE ( '' ) ;
#36 = EDGE_CURVE ( 'NONE', #24, #95, #42, .T. ) ;
#37 = CC_DESIGN_APPROVAL ( #54, ( #120 ) ) ;
#38 = APPLICATION_CONTEXT ( 'configuration controlled 3d designs of mechanical parts and assemblies' ) ;
#39 = CC_DESIGN_APPROVAL ( #104, ( #1 ) ) ;
#40 = CARTESIAN_POINT ( 'NONE',  ( -2.499999999999999556, 0.000000000000000000, 0.000000000000000000 ) ) ;
#41 = PERSON ( 'UNSPECIFIED', 'UNSPECIFIED', 'UNSPECIFIED', ('UNSPECIFIED'), ('UNSPECIFIED'), ('UNSPECIFIED') ) ;
#42 = LINE ( 'NONE', #59, #29 ) ;
#43 = CARTESIAN_POINT ( 'NONE',  ( 0.000000000000000000, 0.000000000000000000, 0.5000000000000000000 ) ) ;
#44 = UNCERTAINTY_MEASURE_WITH_UNIT (LENGTH_MEASURE( 1.000000000000000082E-05 ), #20, 'distance_accuracy_value', 'NONE');
#45 = PLANE ( 'NONE',  #156 ) ;
#46 = APPROVAL_PERSON_ORGANIZATION ( #52, #104, #161 ) ;
#47 = CIRCLE ( 'NONE', #105, 2.499999999999999556 ) ;
#48 = DIRECTION ( 'NONE',  ( 1.000000000000000000, 0.000000000000000000, -0.000000000000000000 ) ) ;
#49 = ADVANCED_FACE ( 'NONE', ( #7 ), #168, .T. ) ;
#50 = PERSON_AND_ORGANIZATION ( #41, #72 ) ;
#51 = SECURITY_CLASSIFICATION_LEVEL ( 'unclassified' ) ;
#52 = PERSON_AND_ORGANIZATION ( #41, #72 ) ;
#53 = LOCAL_TIME ( 11, 22, 2.000000000000000000, #172 ) ;
#54 = APPROVAL ( #65, 'UNSPECIFIED' ) ;
#55 = APPLICATION_CONTEXT ( 'configuration controlled 3d designs of mechanical parts and assemblies' ) ;
#56 = AXIS2_PLACEMENT_3D ( 'NONE', #73, #126, #60 ) ;
#57 = CARTESIAN_POINT ( 'NONE',  ( 0.000000000000000000, 0.000000000000000000, 0.5000000000000000000 ) ) ;
#58 = CIRCLE ( 'NONE', #56, 2.499999999999999556 ) ;
#59 = CARTESIAN_POINT ( 'NONE',  ( -2.499999999999999556, 0.000000000000000000, 0.5000000000000000000 ) ) ;
#60 = DIRECTION ( 'NONE',  ( 1.000000000000000000, 0.000000000000000000, 0.000000000000000000 ) ) ;
#61 = DIRECTION ( 'NONE',  ( 1.000000000000000000, 0.000000000000000000, -0.000000000000000000 ) ) ;
#62 = LOCAL_TIME ( 11, 22, 2.000000000000000000, #129 ) ;
#63 = PERSON_AND_ORGANIZATION_ROLE ( 'design_supplier' ) ;
#64 = DIRECTION ( 'NONE',  ( 0.000000000000000000, 0.000000000000000000, 1.000000000000000000 ) ) ;
#65 = APPROVAL_STATUS ( 'not_yet_approved' ) ;
#66 = PERSON_AND_ORGANIZATION_ROLE ( 'creator' ) ;
#67 = LOCAL_TIME ( 11, 22, 2.000000000000000000, #118 ) ;
#68 = ORIENTED_EDGE ( 'NONE', *, *, #77, .T. ) ;
#69 = APPROVAL ( #148, 'UNSPECIFIED' ) ;
#70 = EDGE_LOOP ( 'NONE', ( #151, #157 ) ) ;
#71 = CC_DESIGN_PERSON_AND_ORGANIZATION_ASSIGNMENT ( #22, #34, ( #1 ) ) ;
#72 = ORGANIZATION ( 'UNSPECIFIED', 'UNSPECIFIED', '' ) ;
#73 = CARTESIAN_POINT ( 'NONE',  ( 0.000000000000000000, 0.000000000000000000, 0.000000000000000000 ) ) ;
#74 = MANIFOLD_SOLID_BREP ( 'Boss-Extrude1', #133 ) ;
#75 = CALENDAR_DATE ( 2022, 15, 3 ) ;
#76 = PERSON_AND_ORGANIZATION ( #41, #72 ) ;
#77 = EDGE_CURVE ( 'NONE', #87, #95, #47, .T. ) ;
#78 = DATE_TIME_ROLE ( 'creation_date' ) ;
#79 = APPROVAL_PERSON_ORGANIZATION ( #9, #54, #160 ) ;
#80 = CALENDAR_DATE ( 2022, 15, 3 ) ;
#81 = CC_DESIGN_PERSON_AND_ORGANIZATION_ASSIGNMENT ( #90, #63, ( #2 ) ) ;
#82 = ORIENTED_EDGE ( 'NONE', *, *, #121, .F. ) ;
#83 = ORIENTED_EDGE ( 'NONE', *, *, #77, .F. ) ;
#84 = LOCAL_TIME ( 11, 22, 2.000000000000000000, #162 ) ;
#85 = CARTESIAN_POINT ( 'NONE',  ( 2.499999999999999556, 3.061616997868382648E-16, 0.5000000000000000000 ) ) ;
#86 = CC_DESIGN_PERSON_AND_ORGANIZATION_ASSIGNMENT ( #50, #21, ( #120 ) ) ;
#87 = VERTEX_POINT ( 'NONE', #113 ) ;
#88 = FACE_OUTER_BOUND ( 'NONE', #152, .T. ) ;
#89 = FACE_OUTER_BOUND ( 'NONE', #70, .T. ) ;
#90 = PERSON_AND_ORGANIZATION ( #41, #72 ) ;
#91 = DATE_AND_TIME ( #75, #67 ) ;
#92 = AXIS2_PLACEMENT_3D ( 'NONE', #112, #167, #125 ) ;
#93 = PERSON_AND_ORGANIZATION ( #41, #72 ) ;
#94 = CC_DESIGN_SECURITY_CLASSIFICATION ( #1, ( #2 ) ) ;
#95 = VERTEX_POINT ( 'NONE', #40 ) ;
#96 = CC_DESIGN_PERSON_AND_ORGANIZATION_ASSIGNMENT ( #93, #116, ( #135 ) ) ;
#97 = EDGE_LOOP ( 'NONE', ( #28, #83 ) ) ;
#98 = DIRECTION ( 'NONE',  ( 0.000000000000000000, 0.000000000000000000, 1.000000000000000000 ) ) ;
#99 = CARTESIAN_POINT ( 'NONE',  ( 2.499999999999999556, 3.061616997868382648E-16, 0.5000000000000000000 ) ) ;
#100 = APPROVAL_PERSON_ORGANIZATION ( #76, #69, #35 ) ;
#101 = EDGE_CURVE ( 'NONE', #142, #24, #140, .T. ) ;
#102 = DIRECTION ( 'NONE',  ( -0.000000000000000000, -0.000000000000000000, -1.000000000000000000 ) ) ;
#103 = CARTESIAN_POINT ( 'NONE',  ( 0.000000000000000000, 0.000000000000000000, 0.000000000000000000 ) ) ;
#104 = APPROVAL ( #106, 'UNSPECIFIED' ) ;
#105 = AXIS2_PLACEMENT_3D ( 'NONE', #31, #4, #18 ) ;
#106 = APPROVAL_STATUS ( 'not_yet_approved' ) ;
#107 = AXIS2_PLACEMENT_3D ( 'NONE', #25, #6, #169 ) ;
#108 = EDGE_CURVE ( 'NONE', #95, #87, #58, .T. ) ;
#109 = ORIENTED_EDGE ( 'NONE', *, *, #36, .T. ) ;
#110 = CC_DESIGN_DATE_AND_TIME_ASSIGNMENT ( #119, #130, ( #1 ) ) ;
#111 = CARTESIAN_POINT ( 'NONE',  ( 0.000000000000000000, 0.000000000000000000, 0.000000000000000000 ) ) ;
#112 = CARTESIAN_POINT ( 'NONE',  ( 0.000000000000000000, 0.000000000000000000, 0.5000000000000000000 ) ) ;
#113 = CARTESIAN_POINT ( 'NONE',  ( 2.499999999999999556, 3.061616997868382648E-16, 0.000000000000000000 ) ) ;
#114 = LINE ( 'NONE', #99, #149 ) ;
#115 = CALENDAR_DATE ( 2022, 15, 3 ) ;
#116 = PERSON_AND_ORGANIZATION_ROLE ( 'design_owner' ) ;
#117 = MECHANICAL_CONTEXT ( 'NONE', #38, 'mechanical' ) ;
#118 = COORDINATED_UNIVERSAL_TIME_OFFSET ( 5, 0, .BEHIND. ) ;
#119 = DATE_AND_TIME ( #115, #84 ) ;
#120 = PRODUCT_DEFINITION ( 'UNKNOWN', '', #2, #3 ) ;
#121 = EDGE_CURVE ( 'NONE', #24, #142, #174, .T. ) ;
#122 = ORIENTED_EDGE ( 'NONE', *, *, #101, .F. ) ;
#123 = DIRECTION ( 'NONE',  ( 0.000000000000000000, 0.000000000000000000, 1.000000000000000000 ) ) ;
#124 = AXIS2_PLACEMENT_3D ( 'NONE', #111, #166, #61 ) ;
#125 = DIRECTION ( 'NONE',  ( -1.000000000000000000, 0.000000000000000000, 0.000000000000000000 ) ) ;
#126 = DIRECTION ( 'NONE',  ( 0.000000000000000000, 0.000000000000000000, 1.000000000000000000 ) ) ;
#127 = APPROVAL_DATE_TIME ( #128, #69 ) ;
#128 = DATE_AND_TIME ( #80, #62 ) ;
#129 = COORDINATED_UNIVERSAL_TIME_OFFSET ( 5, 0, .BEHIND. ) ;
#130 = DATE_TIME_ROLE ( 'classification_date' ) ;
#131 = AXIS2_PLACEMENT_3D ( 'NONE', #43, #98, #170 ) ;
#132 = CC_DESIGN_PERSON_AND_ORGANIZATION_ASSIGNMENT ( #144, #66, ( #2 ) ) ;
#133 = CLOSED_SHELL ( 'NONE', ( #17, #49, #147, #30 ) ) ;
#134 = ORIENTED_EDGE ( 'NONE', *, *, #36, .F. ) ;
#135 = PRODUCT ( 'Web Model 43365_20974', 'Web Model 43365_20974', '', ( #117 ) ) ;
#136 = LOCAL_TIME ( 11, 22, 2.000000000000000000, #173 ) ;
#137 = ORIENTED_EDGE ( 'NONE', *, *, #108, .T. ) ;
#138 = CARTESIAN_POINT ( 'NONE',  ( 0.000000000000000000, 0.000000000000000000, 0.5000000000000000000 ) ) ;
#139 = ORIENTED_EDGE ( 'NONE', *, *, #154, .F. ) ;
#140 = CIRCLE ( 'NONE', #131, 2.499999999999999556 ) ;
#141 = CARTESIAN_POINT ( 'NONE',  ( -2.499999999999999556, 0.000000000000000000, 0.5000000000000000000 ) ) ;
#142 = VERTEX_POINT ( 'NONE', #85 ) ;
#143 = DIRECTION ( 'NONE',  ( -0.000000000000000000, -0.000000000000000000, -1.000000000000000000 ) ) ;
#144 = PERSON_AND_ORGANIZATION ( #41, #72 ) ;
#145 = DATE_AND_TIME ( #13, #53 ) ;
#146 = SHAPE_DEFINITION_REPRESENTATION ( #16, #26 ) ;
#147 = ADVANCED_FACE ( 'NONE', ( #89 ), #45, .T. ) ;
#148 = APPROVAL_STATUS ( 'not_yet_approved' ) ;
#149 = VECTOR ( 'NONE', #102, 1000.000000000000000 ) ;
#150 = APPROVAL_DATE_TIME ( #145, #54 ) ;
#151 = ORIENTED_EDGE ( 'NONE', *, *, #121, .T. ) ;
#152 = EDGE_LOOP ( 'NONE', ( #122, #164, #68, #134 ) ) ;
#153 = DIRECTION ( 'NONE',  ( -0.000000000000000000, -0.000000000000000000, -1.000000000000000000 ) ) ;
#154 = EDGE_CURVE ( 'NONE', #142, #87, #114, .T. ) ;
#155 = CYLINDRICAL_SURFACE ( 'NONE', #12, 2.499999999999999556 ) ;
#156 = AXIS2_PLACEMENT_3D ( 'NONE', #138, #123, #48 ) ;
#157 = ORIENTED_EDGE ( 'NONE', *, *, #101, .T. ) ;
#158 =( NAMED_UNIT ( * ) PLANE_ANGLE_UNIT ( ) SI_UNIT ( $, .RADIAN. ) );
#159 = APPLICATION_PROTOCOL_DEFINITION ( 'international standard', 'config_control_design', 1994, #38 ) ;
#160 = APPROVAL_ROLE ( '' ) ;
#161 = APPROVAL_ROLE ( '' ) ;
#162 = COORDINATED_UNIVERSAL_TIME_OFFSET ( 5, 0, .BEHIND. ) ;
#163 = CC_DESIGN_APPROVAL ( #69, ( #2 ) ) ;
#164 = ORIENTED_EDGE ( 'NONE', *, *, #154, .T. ) ;
#165 = CC_DESIGN_DATE_AND_TIME_ASSIGNMENT ( #33, #78, ( #120 ) ) ;
#166 = DIRECTION ( 'NONE',  ( 0.000000000000000000, 0.000000000000000000, 1.000000000000000000 ) ) ;
#167 = DIRECTION ( 'NONE',  ( -0.000000000000000000, -0.000000000000000000, -1.000000000000000000 ) ) ;
#168 = CYLINDRICAL_SURFACE ( 'NONE', #92, 2.499999999999999556 ) ;
#169 = DIRECTION ( 'NONE',  ( 1.000000000000000000, 0.000000000000000000, 0.000000000000000000 ) ) ;
#170 = DIRECTION ( 'NONE',  ( 1.000000000000000000, 0.000000000000000000, 0.000000000000000000 ) ) ;
#171 = APPROVAL_DATE_TIME ( #91, #104 ) ;
#172 = COORDINATED_UNIVERSAL_TIME_OFFSET ( 5, 0, .BEHIND. ) ;
#173 = COORDINATED_UNIVERSAL_TIME_OFFSET ( 5, 0, .BEHIND. ) ;
#174 = CIRCLE ( 'NONE', #107, 2.499999999999999556 ) ;
#175 = CALENDAR_DATE ( 2022, 15, 3 ) ;
ENDSEC;
END-ISO-10303-21;
