ISO-10303-21;
HEADER;
FILE_DESCRIPTION (( 'STEP AP203' ),
    '1' );
FILE_NAME ('20108-E0W.STEP',
    '2009-09-14T20:25:41',
    ( 'Admin' ),
    ( 'Thorlabs, Inc.' ),
    'SwSTEP 2.0',
    'SolidWorks 2007',
    '' );
FILE_SCHEMA (( 'CONFIG_CONTROL_DESIGN' ));
ENDSEC;

DATA;
#1 = VERTEX_POINT ( 'NONE', #56 ) ;
#2 = EDGE_CURVE ( 'NONE', #6, #31, #46, .T. ) ;
#3 = ORIENTED_EDGE ( 'NONE', *, *, #9, .T. ) ;
#4 = VERTEX_POINT ( 'NONE', #47 ) ;
#5 = EDGE_CURVE ( 'NONE', #4, #1, #71, .T. ) ;
#6 = VERTEX_POINT ( 'NONE', #66 ) ;
#7 = ADVANCED_FACE ( 'NONE', ( #65 ), #64, .T. ) ;
#8 = ORIENTED_EDGE ( 'NONE', *, *, #5, .T. ) ;
#9 = EDGE_CURVE ( 'NONE', #1, #6, #63, .T. ) ;
#10 = EDGE_LOOP ( 'NONE', ( #11, #13 ) ) ;
#11 = ORIENTED_EDGE ( 'NONE', *, *, #32, .T. ) ;
#12 = ORIENTED_EDGE ( 'NONE', *, *, #5, .F. ) ;
#13 = ORIENTED_EDGE ( 'NONE', *, *, #2, .T. ) ;
#14 = ADVANCED_FACE ( 'NONE', ( #54 ), #53, .T. ) ;
#15 = MANIFOLD_SOLID_BREP ( 'NONE', #201 ) ;
#16 = ADVANCED_FACE ( 'NONE', ( #48 ), #34, .T. ) ;
#17 = ORIENTED_EDGE ( 'NONE', *, *, #25, .T. ) ;
#18 = ORIENTED_EDGE ( 'NONE', *, *, #21, .T. ) ;
#19 = VERTEX_POINT ( 'NONE', #73 ) ;
#20 = ORIENTED_EDGE ( 'NONE', *, *, #27, .F. ) ;
#21 = EDGE_CURVE ( 'NONE', #1, #4, #74, .T. ) ;
#22 = ORIENTED_EDGE ( 'NONE', *, *, #28, .T. ) ;
#23 = EDGE_LOOP ( 'NONE', ( #20, #17, #12 ) ) ;
#24 = EDGE_LOOP ( 'NONE', ( #26, #18, #22, #200 ) ) ;
#25 = EDGE_CURVE ( 'NONE', #19, #1, #144, .T. ) ;
#26 = ORIENTED_EDGE ( 'NONE', *, *, #9, .F. ) ;
#27 = EDGE_CURVE ( 'NONE', #19, #4, #175, .T. ) ;
#28 = EDGE_CURVE ( 'NONE', #4, #31, #176, .T. ) ;
#29 = DIRECTION ( 'NONE',  ( 0.0000000000000000000, 3.061515884555943100E-016, -1.000000000000000000 ) ) ;
#30 = CARTESIAN_POINT ( 'NONE',  ( 0.0000000000000000000, -8.551287658173988200E-016, 1.821154757521144400 ) ) ;
#31 = VERTEX_POINT ( 'NONE', #146 ) ;
#32 = EDGE_CURVE ( 'NONE', #31, #6, #145, .T. ) ;
#33 = DIRECTION ( 'NONE',  ( 0.0000000000000000000, 1.000000000000000000, 3.073328992872296400E-016 ) ) ;
#34 = CYLINDRICAL_SURFACE ( 'NONE', #40, 12.69999999999999900 ) ;
#35 = ADVANCED_FACE ( 'NONE', ( #94 ), #161, .T. ) ;
#36 = ORIENTED_EDGE ( 'NONE', *, *, #28, .F. ) ;
#37 = ORIENTED_EDGE ( 'NONE', *, *, #32, .F. ) ;
#38 = CARTESIAN_POINT ( 'NONE',  ( 0.0000000000000000000, 3.147238329323510100E-016, -2.000000000000000000 ) ) ;
#39 = DIRECTION ( 'NONE',  ( 0.0000000000000000000, 3.061515884555943100E-016, -1.000000000000000000 ) ) ;
#40 = AXIS2_PLACEMENT_3D ( 'NONE', #38, #39, #33 ) ;
#41 = DIRECTION ( 'NONE',  ( 0.0000000000000000000, 1.000000000000000000, 3.073328992872295900E-016 ) ) ;
#42 = DIRECTION ( 'NONE',  ( 0.0000000000000000000, 1.000000000000000000, 3.073328992872296400E-016 ) ) ;
#43 = DIRECTION ( 'NONE',  ( 0.0000000000000000000, 3.061515884555943100E-016, -1.000000000000000000 ) ) ;
#44 = CARTESIAN_POINT ( 'NONE',  ( 0.0000000000000000000, 3.147238329323521900E-016, -2.000000000000004000 ) ) ;
#45 = AXIS2_PLACEMENT_3D ( 'NONE', #44, #43, #42 ) ;
#46 = CIRCLE ( 'NONE', #45, 12.69999999999999900 ) ;
#47 = CARTESIAN_POINT ( 'NONE',  ( 0.0000000000000000000, 12.70000000000066700, 1.821154757521092900 ) ) ;
#48 = FACE_OUTER_BOUND ( 'NONE', #24, .T. ) ;
#49 = DIRECTION ( 'NONE',  ( 0.0000000000000000000, 1.000000000000000000, 3.061515884555943100E-016 ) ) ;
#50 = DIRECTION ( 'NONE',  ( 0.0000000000000000000, 3.061515884555943100E-016, -1.000000000000000000 ) ) ;
#51 = CARTESIAN_POINT ( 'NONE',  ( 0.0000000000000000000, 3.147238329323515500E-016, -2.000000000000001800 ) ) ;
#52 = AXIS2_PLACEMENT_3D ( 'NONE', #51, #50, #49 ) ;
#53 = PLANE ( 'NONE',  #52 ) ;
#54 = FACE_OUTER_BOUND ( 'NONE', #10, .T. ) ;
#55 = DIRECTION ( 'NONE',  ( 0.0000000000000000000, 3.061515884555943100E-016, -1.000000000000000000 ) ) ;
#56 = CARTESIAN_POINT ( 'NONE',  ( 1.555250069354500900E-015, -12.70000000000075200, 1.821154757521088900 ) ) ;
#57 = VECTOR ( 'NONE', #55, 1000.000000000000000 ) ;
#58 = CARTESIAN_POINT ( 'NONE',  ( 1.555250069354419100E-015, -12.69999999999999900, -2.000000000000004000 ) ) ;
#59 = DIRECTION ( 'NONE',  ( 0.0000000000000000000, 1.000000000000000000, 3.073328992872296400E-016 ) ) ;
#60 = DIRECTION ( 'NONE',  ( 0.0000000000000000000, 3.061515884555943100E-016, -1.000000000000000000 ) ) ;
#61 = CARTESIAN_POINT ( 'NONE',  ( 0.0000000000000000000, 3.147238329323510100E-016, -2.000000000000000000 ) ) ;
#62 = AXIS2_PLACEMENT_3D ( 'NONE', #61, #60, #59 ) ;
#63 = LINE ( 'NONE', #58, #57 ) ;
#64 = CYLINDRICAL_SURFACE ( 'NONE', #62, 12.69999999999999900 ) ;
#65 = FACE_OUTER_BOUND ( 'NONE', #199, .T. ) ;
#66 = CARTESIAN_POINT ( 'NONE',  ( 1.555250069354419100E-015, -12.69999999999999900, -2.000000000000008000 ) ) ;
#67 = DIRECTION ( 'NONE',  ( 0.0000000000000000000, 1.000000000000000000, 3.073328992872295900E-016 ) ) ;
#68 = DIRECTION ( 'NONE',  ( 0.0000000000000000000, 3.061515884555943100E-016, -1.000000000000000000 ) ) ;
#69 = CARTESIAN_POINT ( 'NONE',  ( 0.0000000000000000000, -8.551287658173988200E-016, 1.821154757521144400 ) ) ;
#70 = AXIS2_PLACEMENT_3D ( 'NONE', #69, #68, #67 ) ;
#71 = CIRCLE ( 'NONE', #70, 12.70000000000000100 ) ;
#72 = AXIS2_PLACEMENT_3D ( 'NONE', #30, #29, #41 ) ;
#73 = CARTESIAN_POINT ( 'NONE',  ( 0.0000000000000000000, -5.614085368463305500E-014, 2.000000000000001800 ) ) ;
#74 = CIRCLE ( 'NONE', #72, 12.70000000000000100 ) ;
#75 = PRODUCT_DEFINITION_SHAPE ( 'NONE', 'NONE',  #151 ) ;
#76 = PRODUCT_RELATED_PRODUCT_CATEGORY ( 'detail', '', ( #164 ) ) ;
#77 = CC_DESIGN_SECURITY_CLASSIFICATION ( #191, ( #118 ) ) ;
#78 = CC_DESIGN_APPROVAL ( #86, ( #191 ) ) ;
#79 = APPROVAL_DATE_TIME ( #80, #86 ) ;
#80 = DATE_AND_TIME ( #81, #82 ) ;
#81 = CALENDAR_DATE ( 2009, 14, 9 ) ;
#82 = LOCAL_TIME ( 16, 25, 41.00000000000000000, #83 ) ;
#83 = COORDINATED_UNIVERSAL_TIME_OFFSET ( 5, 0, .BEHIND. ) ;
#84 = APPROVAL_PERSON_ORGANIZATION ( #88, #86, #85 ) ;
#85 = APPROVAL_ROLE ( '' ) ;
#86 = APPROVAL ( #87, 'UNSPECIFIED' ) ;
#87 = APPROVAL_STATUS ( 'not_yet_approved' ) ;
#88 = PERSON_AND_ORGANIZATION ( #163, #158 ) ;
#89 = CC_DESIGN_DATE_AND_TIME_ASSIGNMENT ( #91, #90, ( #191 ) ) ;
#90 = DATE_TIME_ROLE ( 'classification_date' ) ;
#91 = DATE_AND_TIME ( #92, #186 ) ;
#92 = CALENDAR_DATE ( 2009, 14, 9 ) ;
#93 = AXIS2_PLACEMENT_3D ( 'NONE', #141, #140, #139 ) ;
#94 = FACE_OUTER_BOUND ( 'NONE', #23, .T. ) ;
#95 =( NAMED_UNIT ( * ) SI_UNIT ( $, .STERADIAN. ) SOLID_ANGLE_UNIT ( ) );
#96 =( NAMED_UNIT ( * ) PLANE_ANGLE_UNIT ( ) SI_UNIT ( $, .RADIAN. ) );
#97 = DIRECTION ( 'NONE',  ( 0.0000000000000000000, 1.000000000000000000, 2.461637268852479000E-016 ) ) ;
#98 = DIRECTION ( 'NONE',  ( 1.000000000000000000, 0.0000000000000000000, 0.0000000000000000000 ) ) ;
#99 = CARTESIAN_POINT ( 'NONE',  ( 0.0000000000000000000, 5.432108864285300900E-014, -449.0099999999999900 ) ) ;
#100 = AXIS2_PLACEMENT_3D ( 'NONE', #99, #98, #97 ) ;
#101 =( LENGTH_UNIT ( ) NAMED_UNIT ( * ) SI_UNIT ( .MILLI., .METRE. ) );
#102 = PERSON_AND_ORGANIZATION_ROLE ( 'design_supplier' ) ;
#103 = PERSON_AND_ORGANIZATION ( #163, #158 ) ;
#104 = CC_DESIGN_PERSON_AND_ORGANIZATION_ASSIGNMENT ( #106, #105, ( #118 ) ) ;
#105 = PERSON_AND_ORGANIZATION_ROLE ( 'creator' ) ;
#106 = PERSON_AND_ORGANIZATION ( #163, #158 ) ;
#107 = CC_DESIGN_APPROVAL ( #115, ( #118 ) ) ;
#108 = APPROVAL_DATE_TIME ( #109, #115 ) ;
#109 = DATE_AND_TIME ( #110, #111 ) ;
#110 = CALENDAR_DATE ( 2009, 14, 9 ) ;
#111 = LOCAL_TIME ( 16, 25, 41.00000000000000000, #112 ) ;
#112 = COORDINATED_UNIVERSAL_TIME_OFFSET ( 5, 0, .BEHIND. ) ;
#113 = APPROVAL_PERSON_ORGANIZATION ( #117, #115, #114 ) ;
#114 = APPROVAL_ROLE ( '' ) ;
#115 = APPROVAL ( #116, 'UNSPECIFIED' ) ;
#116 = APPROVAL_STATUS ( 'not_yet_approved' ) ;
#117 = PERSON_AND_ORGANIZATION ( #163, #158 ) ;
#118 = PRODUCT_DEFINITION_FORMATION_WITH_SPECIFIED_SOURCE ( 'ANY', '', #164, .NOT_KNOWN. ) ;
#119 = CC_DESIGN_DATE_AND_TIME_ASSIGNMENT ( #121, #120, ( #151 ) ) ;
#120 = DATE_TIME_ROLE ( 'creation_date' ) ;
#121 = DATE_AND_TIME ( #122, #123 ) ;
#122 = CALENDAR_DATE ( 2009, 14, 9 ) ;
#123 = LOCAL_TIME ( 16, 25, 41.00000000000000000, #124 ) ;
#124 = COORDINATED_UNIVERSAL_TIME_OFFSET ( 5, 0, .BEHIND. ) ;
#125 = CC_DESIGN_PERSON_AND_ORGANIZATION_ASSIGNMENT ( #127, #126, ( #151 ) ) ;
#126 = PERSON_AND_ORGANIZATION_ROLE ( 'creator' ) ;
#127 = PERSON_AND_ORGANIZATION ( #163, #158 ) ;
#128 = CC_DESIGN_APPROVAL ( #136, ( #151 ) ) ;
#129 = APPROVAL_DATE_TIME ( #130, #136 ) ;
#130 = DATE_AND_TIME ( #131, #132 ) ;
#131 = CALENDAR_DATE ( 2009, 14, 9 ) ;
#132 = LOCAL_TIME ( 16, 25, 41.00000000000000000, #133 ) ;
#133 = COORDINATED_UNIVERSAL_TIME_OFFSET ( 5, 0, .BEHIND. ) ;
#134 = APPROVAL_PERSON_ORGANIZATION ( #150, #136, #135 ) ;
#135 = APPROVAL_ROLE ( '' ) ;
#136 = APPROVAL ( #137, 'UNSPECIFIED' ) ;
#137 = APPROVAL_STATUS ( 'not_yet_approved' ) ;
#138 = AXIS2_PLACEMENT_3D ( 'NONE', #171, #170, #169 ) ;
#139 = DIRECTION ( 'NONE',  ( 0.0000000000000000000, 1.000000000000000000, 3.073328992872296400E-016 ) ) ;
#140 = DIRECTION ( 'NONE',  ( 0.0000000000000000000, 3.061515884555943100E-016, -1.000000000000000000 ) ) ;
#141 = CARTESIAN_POINT ( 'NONE',  ( 0.0000000000000000000, 3.147238329323521900E-016, -2.000000000000004000 ) ) ;
#142 = CARTESIAN_POINT ( 'NONE',  ( 0.0000000000000000000, 5.432108864285300900E-014, -449.0099999999999900 ) ) ;
#143 = AXIS2_PLACEMENT_3D ( 'NONE', #142, #173, #172 ) ;
#144 = CIRCLE ( 'NONE', #143, 451.0099999999999900 ) ;
#145 = CIRCLE ( 'NONE', #93, 12.69999999999999900 ) ;
#146 = CARTESIAN_POINT ( 'NONE',  ( 0.0000000000000000000, 12.69999999999999900, -2.000000000000000000 ) ) ;
#147 = DIRECTION ( 'NONE',  ( 0.0000000000000000000, 3.061515884555943100E-016, -1.000000000000000000 ) ) ;
#148 = VECTOR ( 'NONE', #147, 1000.000000000000000 ) ;
#149 = CARTESIAN_POINT ( 'NONE',  ( 0.0000000000000000000, 12.69999999999999900, -1.999999999999996200 ) ) ;
#150 = PERSON_AND_ORGANIZATION ( #163, #158 ) ;
#151 = PRODUCT_DEFINITION ( 'UNKNOWN', '', #118, #152 ) ;
#152 = DESIGN_CONTEXT ( 'detailed design', #154, 'design' ) ;
#153 = APPLICATION_PROTOCOL_DEFINITION ( 'international standard', 'config_control_design', 1994, #154 ) ;
#154 = APPLICATION_CONTEXT ( 'configuration controlled 3d designs of mechanical parts and assemblies' ) ;
#155 = CC_DESIGN_PERSON_AND_ORGANIZATION_ASSIGNMENT ( #157, #156, ( #164 ) ) ;
#156 = PERSON_AND_ORGANIZATION_ROLE ( 'design_owner' ) ;
#157 = PERSON_AND_ORGANIZATION ( #163, #158 ) ;
#158 = ORGANIZATION ( 'UNSPECIFIED', 'UNSPECIFIED', '' ) ;
#159 = ADVANCED_BREP_SHAPE_REPRESENTATION ( '20108-E0W', ( #15, #181 ), #160 ) ;
#160 =( GEOMETRIC_REPRESENTATION_CONTEXT ( 3 ) GLOBAL_UNCERTAINTY_ASSIGNED_CONTEXT ( ( #174 ) ) GLOBAL_UNIT_ASSIGNED_CONTEXT ( ( #101, #96, #95 ) ) REPRESENTATION_CONTEXT ( 'NONE', 'WORKASPACE' ) );
#161 = SPHERICAL_SURFACE ( 'NONE', #138, 451.0099999999999900 ) ;
#162 = FACE_OUTER_BOUND ( 'NONE', #195, .T. ) ;
#163 = PERSON ( 'UNSPECIFIED', 'UNSPECIFIED', 'UNSPECIFIED', ('UNSPECIFIED'), ('UNSPECIFIED'), ('UNSPECIFIED') ) ;
#164 = PRODUCT ( '20108-E0W', '20108-E0W', '', ( #165 ) ) ;
#165 = MECHANICAL_CONTEXT ( 'NONE', #167, 'mechanical' ) ;
#166 = APPLICATION_PROTOCOL_DEFINITION ( 'international standard', 'config_control_design', 1994, #167 ) ;
#167 = APPLICATION_CONTEXT ( 'configuration controlled 3d designs of mechanical parts and assemblies' ) ;
#168 = SPHERICAL_SURFACE ( 'NONE', #100, 451.0099999999999900 ) ;
#169 = DIRECTION ( 'NONE',  ( 0.0000000000000000000, 1.000000000000000000, 2.461637268852479000E-016 ) ) ;
#170 = DIRECTION ( 'NONE',  ( 1.000000000000000000, 0.0000000000000000000, 0.0000000000000000000 ) ) ;
#171 = CARTESIAN_POINT ( 'NONE',  ( 0.0000000000000000000, 5.432108864285300900E-014, -449.0099999999999900 ) ) ;
#172 = DIRECTION ( 'NONE',  ( -1.224606353822377000E-016, 1.000000000000000000, 0.0000000000000000000 ) ) ;
#173 = DIRECTION ( 'NONE',  ( 1.000000000000000000, 1.224606353822377300E-016, 3.749151804555343600E-032 ) ) ;
#174 = UNCERTAINTY_MEASURE_WITH_UNIT (LENGTH_MEASURE( 1.000000000000000100E-005 ), #101, 'distance_accuracy_value', 'NONE');
#175 = CIRCLE ( 'NONE', #185, 451.0099999999999900 ) ;
#176 = LINE ( 'NONE', #149, #148 ) ;
#177 = SHAPE_DEFINITION_REPRESENTATION ( #75, #159 ) ;
#178 = DIRECTION ( 'NONE',  ( 1.000000000000000000, 0.0000000000000000000, 0.0000000000000000000 ) ) ;
#179 = DIRECTION ( 'NONE',  ( 0.0000000000000000000, 0.0000000000000000000, 1.000000000000000000 ) ) ;
#180 = CARTESIAN_POINT ( 'NONE',  ( 0.0000000000000000000, 0.0000000000000000000, 0.0000000000000000000 ) ) ;
#181 = AXIS2_PLACEMENT_3D ( 'NONE', #180, #179, #178 ) ;
#182 = DIRECTION ( 'NONE',  ( 0.0000000000000000000, 0.0000000000000000000, 1.000000000000000000 ) ) ;
#183 = DIRECTION ( 'NONE',  ( -1.000000000000000000, 0.0000000000000000000, 0.0000000000000000000 ) ) ;
#184 = CARTESIAN_POINT ( 'NONE',  ( 0.0000000000000000000, 5.432108864285300900E-014, -449.0099999999999900 ) ) ;
#185 = AXIS2_PLACEMENT_3D ( 'NONE', #184, #183, #182 ) ;
#186 = LOCAL_TIME ( 16, 25, 41.00000000000000000, #187 ) ;
#187 = COORDINATED_UNIVERSAL_TIME_OFFSET ( 5, 0, .BEHIND. ) ;
#188 = CC_DESIGN_PERSON_AND_ORGANIZATION_ASSIGNMENT ( #190, #189, ( #191 ) ) ;
#189 = PERSON_AND_ORGANIZATION_ROLE ( 'classification_officer' ) ;
#190 = PERSON_AND_ORGANIZATION ( #163, #158 ) ;
#191 = SECURITY_CLASSIFICATION ( '', '', #192 ) ;
#192 = SECURITY_CLASSIFICATION_LEVEL ( 'unclassified' ) ;
#193 = CC_DESIGN_PERSON_AND_ORGANIZATION_ASSIGNMENT ( #103, #102, ( #118 ) ) ;
#194 = ADVANCED_FACE ( 'NONE', ( #162 ), #168, .T. ) ;
#195 = EDGE_LOOP ( 'NONE', ( #196, #197, #198 ) ) ;
#196 = ORIENTED_EDGE ( 'NONE', *, *, #25, .F. ) ;
#197 = ORIENTED_EDGE ( 'NONE', *, *, #27, .T. ) ;
#198 = ORIENTED_EDGE ( 'NONE', *, *, #21, .F. ) ;
#199 = EDGE_LOOP ( 'NONE', ( #8, #3, #37, #36 ) ) ;
#200 = ORIENTED_EDGE ( 'NONE', *, *, #2, .F. ) ;
#201 = CLOSED_SHELL ( 'NONE', ( #7, #35, #14, #194, #16 ) ) ;
ENDSEC;
END-ISO-10303-21;
