ISO-10303-21;
HEADER;
FILE_DESCRIPTION (( 'STEP AP203' ),
    '1' );
FILE_NAME ('68541_68553.step',
    '2017-07-24T14:48:12',
    ( '' ),
    ( '' ),
    'SwSTEP 2.0',
    'SolidWorks 2016',
    '' );
FILE_SCHEMA (( 'CONFIG_CONTROL_DESIGN' ));
ENDSEC;

DATA;
#1 = CALENDAR_DATE ( 2017, 24, 7 ) ;
#2 = CARTESIAN_POINT ( 'NONE',  ( -1.053590334125295200E-015, 24.74873734152917500, 35.00000000000000000 ) ) ;
#3 = LINE ( 'NONE', #295, #114 ) ;
#4 = DATE_AND_TIME ( #1, #23 ) ;
#5 = CALENDAR_DATE ( 2017, 24, 7 ) ;
#6 = LINE ( 'NONE', #32, #266 ) ;
#7 =( LENGTH_UNIT ( ) NAMED_UNIT ( * ) SI_UNIT ( .MILLI., .METRE. ) );
#8 = DIRECTION ( 'NONE',  ( 0.7071067811865473500, 0.7071067811865476800, 0.0000000000000000000 ) ) ;
#9 = LOCAL_TIME ( 10, 48, 12.00000000000000000, #67 ) ;
#10 = PERSON_AND_ORGANIZATION_ROLE ( 'classification_officer' ) ;
#11 = DATE_TIME_ROLE ( 'classification_date' ) ;
#12 = CC_DESIGN_PERSON_AND_ORGANIZATION_ASSIGNMENT ( #177, #10, ( #333 ) ) ;
#13 = PERSON_AND_ORGANIZATION ( #151, #339 ) ;
#14 = APPROVAL_ROLE ( '' ) ;
#15 = VECTOR ( 'NONE', #84, 1000.000000000000000 ) ;
#16 = ADVANCED_FACE ( 'NONE', ( #218 ), #207, .F. ) ;
#17 = APPROVAL_STATUS ( 'not_yet_approved' ) ;
#18 = ADVANCED_FACE ( 'NONE', ( #33 ), #87, .F. ) ;
#19 = COORDINATED_UNIVERSAL_TIME_OFFSET ( 5, 0, .BEHIND. ) ;
#20 = DATE_AND_TIME ( #98, #228 ) ;
#21 = CC_DESIGN_PERSON_AND_ORGANIZATION_ASSIGNMENT ( #68, #190, ( #111 ) ) ;
#22 = APPROVAL_DATE_TIME ( #126, #253 ) ;
#23 = LOCAL_TIME ( 10, 48, 12.00000000000000000, #289 ) ;
#24 = SHAPE_DEFINITION_REPRESENTATION ( #140, #60 ) ;
#25 = ORIENTED_EDGE ( 'NONE', *, *, #47, .F. ) ;
#26 = PRODUCT_DEFINITION ( 'UNKNOWN', '', #354, #79 ) ;
#27 = CONTEXT_DEPENDENT_SHAPE_REPRESENTATION ( #217, #222 ) ;
#28 = EDGE_CURVE ( 'NONE', #104, #155, #319, .T. ) ;
#29 = ORIENTED_EDGE ( 'NONE', *, *, #96, .T. ) ;
#30 = PLANE ( 'NONE',  #223 ) ;
#31 = PERSON_AND_ORGANIZATION ( #202, #263 ) ;
#32 = CARTESIAN_POINT ( 'NONE',  ( 24.74873734152915700, 9.452808228623134200E-015, 0.0000000000000000000 ) ) ;
#33 = FACE_OUTER_BOUND ( 'NONE', #108, .T. ) ;
#34 = CC_DESIGN_PERSON_AND_ORGANIZATION_ASSIGNMENT ( #169, #129, ( #354 ) ) ;
#35 = CARTESIAN_POINT ( 'NONE',  ( 0.0000000000000000000, 0.0000000000000000000, 0.0000000000000000000 ) ) ;
#36 = MANIFOLD_SOLID_BREP ( 'Extrude1', #191 ) ;
#37 = EDGE_CURVE ( 'NONE', #155, #340, #6, .T. ) ;
#38 = DIRECTION ( 'NONE',  ( 0.0000000000000000000, 0.0000000000000000000, 1.000000000000000000 ) ) ;
#39 = VECTOR ( 'NONE', #232, 1000.000000000000000 ) ;
#40 = CARTESIAN_POINT ( 'NONE',  ( 24.74873734152915700, 9.452808228623134200E-015, 0.0000000000000000000 ) ) ;
#41 = UNCERTAINTY_MEASURE_WITH_UNIT (LENGTH_MEASURE( 1.000000000000000100E-005 ), #157, 'distance_accuracy_value', 'NONE');
#42 = DESIGN_CONTEXT ( 'detailed design', #330, 'design' ) ;
#43 = CC_DESIGN_PERSON_AND_ORGANIZATION_ASSIGNMENT ( #90, #326, ( #56 ) ) ;
#44 = MECHANICAL_CONTEXT ( 'NONE', #127, 'mechanical' ) ;
#45 = CALENDAR_DATE ( 2017, 24, 7 ) ;
#46 = DATE_TIME_ROLE ( 'classification_date' ) ;
#47 = EDGE_CURVE ( 'NONE', #340, #104, #136, .T. ) ;
#48 = DIRECTION ( 'NONE',  ( 1.000000000000000000, 0.0000000000000000000, 0.0000000000000000000 ) ) ;
#49 = SECURITY_CLASSIFICATION_LEVEL ( 'unclassified' ) ;
#50 = CC_DESIGN_APPROVAL ( #208, ( #82 ) ) ;
#51 = APPROVAL_DATE_TIME ( #249, #282 ) ;
#52 = LOCAL_TIME ( 10, 48, 12.00000000000000000, #63 ) ;
#53 = APPROVAL_DATE_TIME ( #338, #234 ) ;
#54 = PERSON_AND_ORGANIZATION ( #151, #339 ) ;
#55 = PERSON_AND_ORGANIZATION ( #151, #339 ) ;
#56 = SECURITY_CLASSIFICATION ( '', '', #301 ) ;
#57 = AXIS2_PLACEMENT_3D ( 'NONE', #314, #180, #337 ) ;
#58 = LINE ( 'NONE', #71, #186 ) ;
#59 = SECURITY_CLASSIFICATION ( '', '', #49 ) ;
#60 = SHAPE_REPRESENTATION ( '32529_5 x 5', ( #203 ), #119 ) ;
#61 = PRODUCT_DEFINITION_SHAPE ( 'NONE', 'NONE',  #267 ) ;
#62 = APPROVAL_PERSON_ORGANIZATION ( #73, #234, #78 ) ;
#63 = COORDINATED_UNIVERSAL_TIME_OFFSET ( 5, 0, .BEHIND. ) ;
#64 = CARTESIAN_POINT ( 'NONE',  ( 24.74873734152915700, 9.452808228623134200E-015, 35.00000000000000000 ) ) ;
#65 = EDGE_CURVE ( 'NONE', #236, #104, #171, .T. ) ;
#66 = CARTESIAN_POINT ( 'NONE',  ( 17.50000000000000400, -17.49999999999999600, -35.00000000000000000 ) ) ;
#67 = COORDINATED_UNIVERSAL_TIME_OFFSET ( 5, 0, .BEHIND. ) ;
#68 = PERSON_AND_ORGANIZATION ( #151, #339 ) ;
#69 = VECTOR ( 'NONE', #225, 1000.000000000000000 ) ;
#70 =( NAMED_UNIT ( * ) SI_UNIT ( $, .STERADIAN. ) SOLID_ANGLE_UNIT ( ) );
#71 = CARTESIAN_POINT ( 'NONE',  ( 24.74873734152915700, 9.452808228623134200E-015, 35.00000000000000000 ) ) ;
#72 = PLANE ( 'NONE',  #220 ) ;
#73 = PERSON_AND_ORGANIZATION ( #151, #339 ) ;
#74 = APPROVAL_STATUS ( 'not_yet_approved' ) ;
#75 = CC_DESIGN_APPROVAL ( #261, ( #111 ) ) ;
#76 = LOCAL_TIME ( 10, 48, 12.00000000000000000, #309 ) ;
#77 = ORIENTED_EDGE ( 'NONE', *, *, #251, .T. ) ;
#78 = APPROVAL_ROLE ( '' ) ;
#79 = DESIGN_CONTEXT ( 'detailed design', #238, 'design' ) ;
#80 = PERSON_AND_ORGANIZATION ( #151, #339 ) ;
#81 = ORIENTED_EDGE ( 'NONE', *, *, #65, .T. ) ;
#82 = PRODUCT_DEFINITION_FORMATION_WITH_SPECIFIED_SOURCE ( 'ANY', '', #168, .NOT_KNOWN. ) ;
#83 = VECTOR ( 'NONE', #94, 1000.000000000000000 ) ;
#84 = DIRECTION ( 'NONE',  ( -0.0000000000000000000, -0.0000000000000000000, -1.000000000000000000 ) ) ;
#85 = ORGANIZATION ( 'NAUO-ORG1', 'UNSPECIFIED', 'UNSPECIFIED' ) ;
#86 = ORIENTED_EDGE ( 'NONE', *, *, #28, .F. ) ;
#87 = PLANE ( 'NONE',  #57 ) ;
#88 = DATE_AND_TIME ( #312, #239 ) ;
#89 = CARTESIAN_POINT ( 'NONE',  ( -24.74873734152915700, 9.452808228623132600E-015, 35.00000000000000000 ) ) ;
#90 = PERSON_AND_ORGANIZATION ( #151, #339 ) ;
#91 = APPROVAL_DATE_TIME ( #117, #315 ) ;
#92 = CC_DESIGN_SECURITY_CLASSIFICATION ( #59, ( #361 ) ) ;
#93 = VECTOR ( 'NONE', #178, 1000.000000000000000 ) ;
#94 = DIRECTION ( 'NONE',  ( -0.0000000000000000000, -0.0000000000000000000, -1.000000000000000000 ) ) ;
#95 = CARTESIAN_POINT ( 'NONE',  ( 17.50000000000001400, -17.50000000000001100, -35.00000000000000000 ) ) ;
#96 = EDGE_CURVE ( 'NONE', #210, #236, #231, .T. ) ;
#97 = CARTESIAN_POINT ( 'NONE',  ( -1.053590334125295200E-015, 24.74873734152917500, 35.00000000000000000 ) ) ;
#98 = CALENDAR_DATE ( 2017, 24, 7 ) ;
#99 = ORIENTED_EDGE ( 'NONE', *, *, #37, .T. ) ;
#100 = CC_DESIGN_SECURITY_CLASSIFICATION ( #111, ( #82 ) ) ;
#101 = DATE_TIME_ROLE ( 'creation_date' ) ;
#102 = APPROVAL_PERSON_ORGANIZATION ( #177, #282, #356 ) ;
#103 = DATE_AND_TIME ( #179, #9 ) ;
#104 = VERTEX_POINT ( 'NONE', #260 ) ;
#105 = DATE_TIME_ROLE ( 'creation_date' ) ;
#106 = CC_DESIGN_DATE_AND_TIME_ASSIGNMENT ( #201, #11, ( #111 ) ) ;
#107 = ITEM_DEFINED_TRANSFORMATION ( 'NONE', 'NONE', #142,  #203 ) ;
#108 = EDGE_LOOP ( 'NONE', ( #199, #286, #224, #81 ) ) ;
#109 = ADVANCED_BREP_SHAPE_REPRESENTATION ( '', ( #36, #203 ), #119 ) ;
#110 = PERSON ( 'NAUO-PER1', 'UNSPECIFIED', 'UNSPECIFIED', ('UNSPECIFIED'), ('UNSPECIFIED'), ('UNSPECIFIED') ) ;
#111 = SECURITY_CLASSIFICATION ( '', '', #135 ) ;
#112 =( GEOMETRIC_REPRESENTATION_CONTEXT ( 3 ) GLOBAL_UNCERTAINTY_ASSIGNED_CONTEXT ( ( #41 ) ) GLOBAL_UNIT_ASSIGNED_CONTEXT ( ( #157, #345, #70 ) ) REPRESENTATION_CONTEXT ( 'NONE', 'WORKASPACE' ) );
#113 = DATE_AND_TIME ( #265, #52 ) ;
#114 = VECTOR ( 'NONE', #269, 1000.000000000000000 ) ;
#115 = DIRECTION ( 'NONE',  ( -0.7071067811865474600, -0.7071067811865476800, 0.0000000000000000000 ) ) ;
#116 = PRODUCT_RELATED_PRODUCT_CATEGORY ( 'detail', '', ( #168 ) ) ;
#117 = DATE_AND_TIME ( #5, #170 ) ;
#118 = ORIENTED_EDGE ( 'NONE', *, *, #96, .F. ) ;
#119 =( GEOMETRIC_REPRESENTATION_CONTEXT ( 3 ) GLOBAL_UNCERTAINTY_ASSIGNED_CONTEXT ( ( #329 ) ) GLOBAL_UNIT_ASSIGNED_CONTEXT ( ( #7, #320, #154 ) ) REPRESENTATION_CONTEXT ( 'NONE', 'WORKASPACE' ) );
#120 = CARTESIAN_POINT ( 'NONE',  ( -1.053590334125295200E-015, 24.74873734152917500, 0.0000000000000000000 ) ) ;
#121 = DATE_AND_TIME ( #204, #332 ) ;
#122 = COORDINATED_UNIVERSAL_TIME_OFFSET ( 5, 0, .BEHIND. ) ;
#123 = CC_DESIGN_PERSON_AND_ORGANIZATION_ASSIGNMENT ( #80, #193, ( #26 ) ) ;
#124 = DIRECTION ( 'NONE',  ( -0.7071067811865474600, 0.7071067811865476800, 0.0000000000000000000 ) ) ;
#125 = DIRECTION ( 'NONE',  ( 0.0000000000000000000, 0.0000000000000000000, -1.000000000000000000 ) ) ;
#126 = DATE_AND_TIME ( #321, #252 ) ;
#127 = APPLICATION_CONTEXT ( 'configuration controlled 3d designs of mechanical parts and assemblies' ) ;
#128 = DATE_AND_TIME ( #230, #247 ) ;
#129 = PERSON_AND_ORGANIZATION_ROLE ( 'creator' ) ;
#130 = CC_DESIGN_PERSON_AND_ORGANIZATION_ASSIGNMENT ( #133, #214, ( #354 ) ) ;
#131 = DATE_TIME_ROLE ( 'classification_date' ) ;
#132 = ADVANCED_FACE ( 'NONE', ( #355 ), #30, .T. ) ;
#133 = PERSON_AND_ORGANIZATION ( #151, #339 ) ;
#134 = PERSON_AND_ORGANIZATION ( #151, #339 ) ;
#135 = SECURITY_CLASSIFICATION_LEVEL ( 'unclassified' ) ;
#136 = LINE ( 'NONE', #147, #69 ) ;
#137 = EDGE_LOOP ( 'NONE', ( #255, #158, #118, #272 ) ) ;
#138 = LOCAL_TIME ( 10, 48, 12.00000000000000000, #143 ) ;
#139 = PERSON_AND_ORGANIZATION_ROLE ( 'classification_officer' ) ;
#140 = PRODUCT_DEFINITION_SHAPE ( 'NONE', 'NONE',  #26 ) ;
#141 = CC_DESIGN_APPROVAL ( #183, ( #354 ) ) ;
#142 = AXIS2_PLACEMENT_3D ( 'NONE', #66, #343, #233 ) ;
#143 = COORDINATED_UNIVERSAL_TIME_OFFSET ( 5, 0, .BEHIND. ) ;
#144 = PRODUCT ( '32529_5 x 5', '32529_5 x 5', '', ( #44 ) ) ;
#145 = PERSON_AND_ORGANIZATION ( #151, #339 ) ;
#146 = CC_DESIGN_SECURITY_CLASSIFICATION ( #333, ( #360 ) ) ;
#147 = CARTESIAN_POINT ( 'NONE',  ( -1.053590334125295200E-015, 24.74873734152917500, 0.0000000000000000000 ) ) ;
#148 = AXIS2_PLACEMENT_3D ( 'NONE', #257, #152, #206 ) ;
#149 = APPROVAL_PERSON_ORGANIZATION ( #54, #287, #14 ) ;
#150 = FACE_OUTER_BOUND ( 'NONE', #305, .T. ) ;
#151 = PERSON ( 'UNSPECIFIED', 'UNSPECIFIED', 'UNSPECIFIED', ('UNSPECIFIED'), ('UNSPECIFIED'), ('UNSPECIFIED') ) ;
#152 = DIRECTION ( 'NONE',  ( -0.7071067811865476800, -0.7071067811865473500, 0.0000000000000000000 ) ) ;
#153 = CC_DESIGN_DATE_AND_TIME_ASSIGNMENT ( #121, #306, ( #59 ) ) ;
#154 =( NAMED_UNIT ( * ) SI_UNIT ( $, .STERADIAN. ) SOLID_ANGLE_UNIT ( ) );
#155 = VERTEX_POINT ( 'NONE', #40 ) ;
#156 = APPROVAL_DATE_TIME ( #103, #287 ) ;
#157 =( LENGTH_UNIT ( ) NAMED_UNIT ( * ) SI_UNIT ( .MILLI., .METRE. ) );
#158 = ORIENTED_EDGE ( 'NONE', *, *, #65, .F. ) ;
#159 = PERSON_AND_ORGANIZATION_ROLE ( 'design_owner' ) ;
#160 = CC_DESIGN_PERSON_AND_ORGANIZATION_ASSIGNMENT ( #55, #165, ( #82 ) ) ;
#161 = APPROVAL_STATUS ( 'not_yet_approved' ) ;
#162 = APPLICATION_CONTEXT ( 'configuration controlled 3d designs of mechanical parts and assemblies' ) ;
#163 = LINE ( 'NONE', #188, #39 ) ;
#164 = APPROVAL_ROLE ( '' ) ;
#165 = PERSON_AND_ORGANIZATION_ROLE ( 'creator' ) ;
#166 = APPROVAL_STATUS ( 'not_yet_approved' ) ;
#167 = COORDINATED_UNIVERSAL_TIME_OFFSET ( 5, 0, .BEHIND. ) ;
#168 = PRODUCT ( '68541_68553', '68541_68553', '', ( #303 ) ) ;
#169 = PERSON_AND_ORGANIZATION ( #151, #339 ) ;
#170 = LOCAL_TIME ( 10, 48, 12.00000000000000000, #242 ) ;
#171 = LINE ( 'NONE', #254, #15 ) ;
#172 = CC_DESIGN_PERSON_AND_ORGANIZATION_ASSIGNMENT ( #216, #349, ( #82 ) ) ;
#173 = AXIS2_PLACEMENT_3D ( 'NONE', #346, #187, #8 ) ;
#174 = DATE_AND_TIME ( #45, #76 ) ;
#175 = CARTESIAN_POINT ( 'NONE',  ( -1.053590334125295200E-015, 24.74873734152917500, 35.00000000000000000 ) ) ;
#176 = ORIENTED_EDGE ( 'NONE', *, *, #37, .F. ) ;
#177 = PERSON_AND_ORGANIZATION ( #110, #85 ) ;
#178 = DIRECTION ( 'NONE',  ( 1.000000000000000000, 3.112772854323303400E-032, 0.0000000000000000000 ) ) ;
#179 = CALENDAR_DATE ( 2017, 24, 7 ) ;
#180 = DIRECTION ( 'NONE',  ( -3.112772854323303400E-032, 1.000000000000000000, 0.0000000000000000000 ) ) ;
#181 = PLANE ( 'NONE',  #173 ) ;
#182 = DIRECTION ( 'NONE',  ( 1.000000000000000000, 0.0000000000000000000, 0.0000000000000000000 ) ) ;
#183 = APPROVAL ( #273, 'UNSPECIFIED' ) ;
#184 = ITEM_DEFINED_TRANSFORMATION ( 'NONE', 'NONE', #278,  #203 ) ;
#185 = DIRECTION ( 'NONE',  ( -1.000000000000000000, 0.0000000000000000000, 0.0000000000000000000 ) ) ;
#186 = VECTOR ( 'NONE', #124, 1000.000000000000000 ) ;
#187 = DIRECTION ( 'NONE',  ( 0.7071067811865476800, -0.7071067811865473500, 0.0000000000000000000 ) ) ;
#188 = CARTESIAN_POINT ( 'NONE',  ( 24.74873734152915700, 9.452808228623134200E-015, 35.00000000000000000 ) ) ;
#189 = APPROVAL_STATUS ( 'not_yet_approved' ) ;
#190 = PERSON_AND_ORGANIZATION_ROLE ( 'classification_officer' ) ;
#191 = CLOSED_SHELL ( 'NONE', ( #357, #18, #16, #298, #132 ) ) ;
#192 = PRODUCT_RELATED_PRODUCT_CATEGORY ( 'detail', '', ( #144 ) ) ;
#193 = PERSON_AND_ORGANIZATION_ROLE ( 'creator' ) ;
#194 = COORDINATED_UNIVERSAL_TIME_OFFSET ( 5, 0, .BEHIND. ) ;
#195 = PRODUCT_DEFINITION_SHAPE ( 'NONE', 'NONE',  #360 ) ;
#196 = APPROVAL_PERSON_ORGANIZATION ( #31, #253, #280 ) ;
#197 = APPROVAL_PERSON_ORGANIZATION ( #145, #315, #270 ) ;
#198 = CC_DESIGN_APPROVAL ( #287, ( #26 ) ) ;
#199 = ORIENTED_EDGE ( 'NONE', *, *, #28, .T. ) ;
#200 = COORDINATED_UNIVERSAL_TIME_OFFSET ( 5, 0, .BEHIND. ) ;
#201 = DATE_AND_TIME ( #209, #335 ) ;
#202 = PERSON ( 'NAUO-PER2', 'UNSPECIFIED', 'UNSPECIFIED', ('UNSPECIFIED'), ('UNSPECIFIED'), ('UNSPECIFIED') ) ;
#203 = AXIS2_PLACEMENT_3D ( 'NONE', #35, #229, #182 ) ;
#204 = CALENDAR_DATE ( 2017, 24, 7 ) ;
#205 = CALENDAR_DATE ( 2017, 24, 7 ) ;
#206 = DIRECTION ( 'NONE',  ( 0.7071067811865473500, -0.7071067811865476800, 0.0000000000000000000 ) ) ;
#207 = PLANE ( 'NONE',  #148 ) ;
#208 = APPROVAL ( #161, 'UNSPECIFIED' ) ;
#209 = CALENDAR_DATE ( 2017, 24, 7 ) ;
#210 = VERTEX_POINT ( 'NONE', #175 ) ;
#211 = PERSON_AND_ORGANIZATION_ROLE ( 'design_owner' ) ;
#212 = APPROVAL_PERSON_ORGANIZATION ( #317, #183, #164 ) ;
#213 = APPLICATION_PROTOCOL_DEFINITION ( 'international standard', 'config_control_design', 1994, #162 ) ;
#214 = PERSON_AND_ORGANIZATION_ROLE ( 'design_supplier' ) ;
#215 = APPROVAL_STATUS ( 'not_yet_approved' ) ;
#216 = PERSON_AND_ORGANIZATION ( #151, #339 ) ;
#217 =( REPRESENTATION_RELATIONSHIP ('NONE','NONE', #311, #60 ) REPRESENTATION_RELATIONSHIP_WITH_TRANSFORMATION ( #107 )SHAPE_REPRESENTATION_RELATIONSHIP( ) );
#218 = FACE_OUTER_BOUND ( 'NONE', #250, .T. ) ;
#219 = CC_DESIGN_SECURITY_CLASSIFICATION ( #56, ( #354 ) ) ;
#220 = AXIS2_PLACEMENT_3D ( 'NONE', #268, #125, #185 ) ;
#221 = CC_DESIGN_PERSON_AND_ORGANIZATION_ASSIGNMENT ( #31, #139, ( #59 ) ) ;
#222 = PRODUCT_DEFINITION_SHAPE ( 'NONE', 'NONE',  #361 ) ;
#223 = AXIS2_PLACEMENT_3D ( 'NONE', #256, #227, #285 ) ;
#224 = ORIENTED_EDGE ( 'NONE', *, *, #290, .F. ) ;
#225 = DIRECTION ( 'NONE',  ( -0.7071067811865474600, -0.7071067811865476800, 0.0000000000000000000 ) ) ;
#226 = CC_DESIGN_DATE_AND_TIME_ASSIGNMENT ( #4, #101, ( #26 ) ) ;
#227 = DIRECTION ( 'NONE',  ( 0.0000000000000000000, 0.0000000000000000000, -1.000000000000000000 ) ) ;
#228 = LOCAL_TIME ( 10, 48, 12.00000000000000000, #308 ) ;
#229 = DIRECTION ( 'NONE',  ( 0.0000000000000000000, 0.0000000000000000000, 1.000000000000000000 ) ) ;
#230 = CALENDAR_DATE ( 2017, 24, 7 ) ;
#231 = LINE ( 'NONE', #2, #302 ) ;
#232 = DIRECTION ( 'NONE',  ( -0.0000000000000000000, -0.0000000000000000000, -1.000000000000000000 ) ) ;
#233 = DIRECTION ( 'NONE',  ( -0.7071067811865474600, -0.7071067811865477900, 0.0000000000000000000 ) ) ;
#234 = APPROVAL ( #215, 'UNSPECIFIED' ) ;
#235 = VERTEX_POINT ( 'NONE', #64 ) ;
#236 = VERTEX_POINT ( 'NONE', #89 ) ;
#237 = AXIS2_PLACEMENT_3D ( 'NONE', #288, #38, #262 ) ;
#238 = APPLICATION_CONTEXT ( 'configuration controlled 3d designs of mechanical parts and assemblies' ) ;
#239 = LOCAL_TIME ( 10, 48, 12.00000000000000000, #200 ) ;
#240 =( REPRESENTATION_RELATIONSHIP ('NONE','NONE', #311, #60 ) REPRESENTATION_RELATIONSHIP_WITH_TRANSFORMATION ( #184 )SHAPE_REPRESENTATION_RELATIONSHIP( ) );
#241 = CALENDAR_DATE ( 2017, 24, 7 ) ;
#242 = COORDINATED_UNIVERSAL_TIME_OFFSET ( 5, 0, .BEHIND. ) ;
#243 = APPROVAL_STATUS ( 'not_yet_approved' ) ;
#244 = APPLICATION_PROTOCOL_DEFINITION ( 'international standard', 'config_control_design', 1994, #238 ) ;
#245 = CC_DESIGN_PERSON_AND_ORGANIZATION_ASSIGNMENT ( #318, #159, ( #168 ) ) ;
#246 = CONTEXT_DEPENDENT_SHAPE_REPRESENTATION ( #240, #195 ) ;
#247 = LOCAL_TIME ( 10, 48, 12.00000000000000000, #122 ) ;
#248 = EDGE_LOOP ( 'NONE', ( #25, #176, #86 ) ) ;
#249 = DATE_AND_TIME ( #342, #325 ) ;
#250 = EDGE_LOOP ( 'NONE', ( #99, #324, #310, #276 ) ) ;
#251 = EDGE_CURVE ( 'NONE', #235, #210, #58, .T. ) ;
#252 = LOCAL_TIME ( 10, 48, 12.00000000000000000, #194 ) ;
#253 = APPROVAL ( #166, 'UNKNOWN' ) ;
#254 = CARTESIAN_POINT ( 'NONE',  ( -24.74873734152915700, 9.452808228623132600E-015, 35.00000000000000000 ) ) ;
#255 = ORIENTED_EDGE ( 'NONE', *, *, #47, .T. ) ;
#256 = CARTESIAN_POINT ( 'NONE',  ( -3.469446951953614200E-015, 24.74873734152918200, 0.0000000000000000000 ) ) ;
#257 = CARTESIAN_POINT ( 'NONE',  ( 24.74873734152915700, 9.452808228623134200E-015, 35.00000000000000000 ) ) ;
#258 = CC_DESIGN_DATE_AND_TIME_ASSIGNMENT ( #88, #131, ( #333 ) ) ;
#259 = DIRECTION ( 'NONE',  ( -0.7071067811865474600, 0.7071067811865476800, 0.0000000000000000000 ) ) ;
#260 = CARTESIAN_POINT ( 'NONE',  ( -24.74873734152915700, 9.452808228623132600E-015, 0.0000000000000000000 ) ) ;
#261 = APPROVAL ( #189, 'UNSPECIFIED' ) ;
#262 = DIRECTION ( 'NONE',  ( 1.000000000000000000, 0.0000000000000000000, 0.0000000000000000000 ) ) ;
#263 = ORGANIZATION ( 'NAUO-ORG2', 'UNSPECIFIED', 'UNSPECIFIED' ) ;
#264 = DIRECTION ( 'NONE',  ( 0.0000000000000000000, 0.0000000000000000000, 1.000000000000000000 ) ) ;
#265 = CALENDAR_DATE ( 2017, 24, 7 ) ;
#266 = VECTOR ( 'NONE', #259, 1000.000000000000000 ) ;
#267 = PRODUCT_DEFINITION ( 'UNKNOWN', '', #82, #42 ) ;
#268 = CARTESIAN_POINT ( 'NONE',  ( -3.469446951953614200E-015, 24.74873734152918200, 35.00000000000000000 ) ) ;
#269 = DIRECTION ( 'NONE',  ( 1.000000000000000000, 3.112772854323303400E-032, 0.0000000000000000000 ) ) ;
#270 = APPROVAL_ROLE ( '' ) ;
#271 = APPLICATION_PROTOCOL_DEFINITION ( 'international standard', 'config_control_design', 1994, #330 ) ;
#272 = ORIENTED_EDGE ( 'NONE', *, *, #322, .T. ) ;
#273 = APPROVAL_STATUS ( 'not_yet_approved' ) ;
#274 = APPROVAL_ROLE ( '' ) ;
#275 = APPROVAL_PERSON_ORGANIZATION ( #134, #261, #274 ) ;
#276 = ORIENTED_EDGE ( 'NONE', *, *, #359, .T. ) ;
#277 = CC_DESIGN_APPROVAL ( #253, ( #59 ) ) ;
#278 = AXIS2_PLACEMENT_3D ( 'NONE', #95, #293, #292 ) ;
#279 = LOCAL_TIME ( 10, 48, 12.00000000000000000, #347 ) ;
#280 = APPROVAL_ROLE ( '' ) ;
#281 = PERSON_AND_ORGANIZATION ( #151, #339 ) ;
#282 = APPROVAL ( #243, 'UNKNOWN' ) ;
#283 = APPROVAL_DATE_TIME ( #352, #183 ) ;
#284 = CC_DESIGN_APPROVAL ( #315, ( #267 ) ) ;
#285 = DIRECTION ( 'NONE',  ( -1.000000000000000000, 0.0000000000000000000, 0.0000000000000000000 ) ) ;
#286 = ORIENTED_EDGE ( 'NONE', *, *, #359, .F. ) ;
#287 = APPROVAL ( #74, 'UNSPECIFIED' ) ;
#288 = CARTESIAN_POINT ( 'NONE',  ( 0.0000000000000000000, 0.0000000000000000000, 0.0000000000000000000 ) ) ;
#289 = COORDINATED_UNIVERSAL_TIME_OFFSET ( 5, 0, .BEHIND. ) ;
#290 = EDGE_CURVE ( 'NONE', #236, #235, #3, .T. ) ;
#291 = APPROVAL_PERSON_ORGANIZATION ( #281, #208, #331 ) ;
#292 = DIRECTION ( 'NONE',  ( 0.7071067811865474600, 0.7071067811865477900, 0.0000000000000000000 ) ) ;
#293 = DIRECTION ( 'NONE',  ( 0.0000000000000000000, 0.0000000000000000000, 1.000000000000000000 ) ) ;
#294 = CARTESIAN_POINT ( 'NONE',  ( 0.0000000000000000000, 0.0000000000000000000, 0.0000000000000000000 ) ) ;
#295 = CARTESIAN_POINT ( 'NONE',  ( -24.74873734152915700, 9.452808228623132600E-015, 35.00000000000000000 ) ) ;
#296 = LINE ( 'NONE', #97, #83 ) ;
#297 = AXIS2_PLACEMENT_3D ( 'NONE', #294, #264, #48 ) ;
#298 = ADVANCED_FACE ( 'NONE', ( #150 ), #72, .F. ) ;
#299 = APPLICATION_PROTOCOL_DEFINITION ( 'international standard', 'config_control_design', 1994, #127 ) ;
#300 = APPROVAL_DATE_TIME ( #128, #208 ) ;
#301 = SECURITY_CLASSIFICATION_LEVEL ( 'unclassified' ) ;
#302 = VECTOR ( 'NONE', #115, 1000.000000000000000 ) ;
#303 = MECHANICAL_CONTEXT ( 'NONE', #162, 'mechanical' ) ;
#304 = CC_DESIGN_PERSON_AND_ORGANIZATION_ASSIGNMENT ( #13, #350, ( #267 ) ) ;
#305 = EDGE_LOOP ( 'NONE', ( #29, #336, #77 ) ) ;
#306 = DATE_TIME_ROLE ( 'classification_date' ) ;
#307 = CC_DESIGN_DATE_AND_TIME_ASSIGNMENT ( #20, #46, ( #56 ) ) ;
#308 = COORDINATED_UNIVERSAL_TIME_OFFSET ( 5, 0, .BEHIND. ) ;
#309 = COORDINATED_UNIVERSAL_TIME_OFFSET ( 5, 0, .BEHIND. ) ;
#310 = ORIENTED_EDGE ( 'NONE', *, *, #251, .F. ) ;
#311 = SHAPE_REPRESENTATION ( '68541_68553', ( #297, #278, #142 ), #112 ) ;
#312 = CALENDAR_DATE ( 2017, 24, 7 ) ;
#313 = CARTESIAN_POINT ( 'NONE',  ( -24.74873734152915700, 9.452808228623132600E-015, 0.0000000000000000000 ) ) ;
#314 = CARTESIAN_POINT ( 'NONE',  ( -24.74873734152915700, 9.452808228623132600E-015, 35.00000000000000000 ) ) ;
#315 = APPROVAL ( #17, 'UNSPECIFIED' ) ;
#316 = CC_DESIGN_PERSON_AND_ORGANIZATION_ASSIGNMENT ( #327, #211, ( #144 ) ) ;
#317 = PERSON_AND_ORGANIZATION ( #151, #339 ) ;
#318 = PERSON_AND_ORGANIZATION ( #151, #339 ) ;
#319 = LINE ( 'NONE', #313, #93 ) ;
#320 =( NAMED_UNIT ( * ) PLANE_ANGLE_UNIT ( ) SI_UNIT ( $, .RADIAN. ) );
#321 = CALENDAR_DATE ( 2017, 24, 7 ) ;
#322 = EDGE_CURVE ( 'NONE', #210, #340, #296, .T. ) ;
#323 = SHAPE_DEFINITION_REPRESENTATION ( #61, #311 ) ;
#324 = ORIENTED_EDGE ( 'NONE', *, *, #322, .F. ) ;
#325 = LOCAL_TIME ( 10, 48, 12.00000000000000000, #19 ) ;
#326 = PERSON_AND_ORGANIZATION_ROLE ( 'classification_officer' ) ;
#327 = PERSON_AND_ORGANIZATION ( #151, #339 ) ;
#328 = CC_DESIGN_APPROVAL ( #234, ( #56 ) ) ;
#329 = UNCERTAINTY_MEASURE_WITH_UNIT (LENGTH_MEASURE( 1.000000000000000100E-005 ), #7, 'distance_accuracy_value', 'NONE');
#330 = APPLICATION_CONTEXT ( 'configuration controlled 3d designs of mechanical parts and assemblies' ) ;
#331 = APPROVAL_ROLE ( '' ) ;
#332 = LOCAL_TIME ( 10, 48, 12.00000000000000000, #167 ) ;
#333 = SECURITY_CLASSIFICATION ( '', '', #351 ) ;
#334 = CC_DESIGN_DATE_AND_TIME_ASSIGNMENT ( #174, #105, ( #267 ) ) ;
#335 = LOCAL_TIME ( 10, 48, 12.00000000000000000, #353 ) ;
#336 = ORIENTED_EDGE ( 'NONE', *, *, #290, .T. ) ;
#337 = DIRECTION ( 'NONE',  ( -1.000000000000000000, -3.112772854323303400E-032, 0.0000000000000000000 ) ) ;
#338 = DATE_AND_TIME ( #205, #279 ) ;
#339 = ORGANIZATION ( 'UNSPECIFIED', 'UNSPECIFIED', '' ) ;
#340 = VERTEX_POINT ( 'NONE', #120 ) ;
#341 = CC_DESIGN_APPROVAL ( #282, ( #333 ) ) ;
#342 = CALENDAR_DATE ( 2017, 24, 7 ) ;
#343 = DIRECTION ( 'NONE',  ( 0.0000000000000000000, 0.0000000000000000000, 1.000000000000000000 ) ) ;
#344 = FACE_OUTER_BOUND ( 'NONE', #137, .T. ) ;
#345 =( NAMED_UNIT ( * ) PLANE_ANGLE_UNIT ( ) SI_UNIT ( $, .RADIAN. ) );
#346 = CARTESIAN_POINT ( 'NONE',  ( -1.053590334125295200E-015, 24.74873734152917500, 35.00000000000000000 ) ) ;
#347 = COORDINATED_UNIVERSAL_TIME_OFFSET ( 5, 0, .BEHIND. ) ;
#348 = APPROVAL_DATE_TIME ( #113, #261 ) ;
#349 = PERSON_AND_ORGANIZATION_ROLE ( 'design_supplier' ) ;
#350 = PERSON_AND_ORGANIZATION_ROLE ( 'creator' ) ;
#351 = SECURITY_CLASSIFICATION_LEVEL ( 'unclassified' ) ;
#352 = DATE_AND_TIME ( #241, #138 ) ;
#353 = COORDINATED_UNIVERSAL_TIME_OFFSET ( 5, 0, .BEHIND. ) ;
#354 = PRODUCT_DEFINITION_FORMATION_WITH_SPECIFIED_SOURCE ( 'ANY', '', #144, .NOT_KNOWN. ) ;
#355 = FACE_OUTER_BOUND ( 'NONE', #248, .T. ) ;
#356 = APPROVAL_ROLE ( '' ) ;
#357 = ADVANCED_FACE ( 'NONE', ( #344 ), #181, .F. ) ;
#358 = SHAPE_REPRESENTATION_RELATIONSHIP ( 'NONE' , 'NONE' ,  #60, #109 ) ;
#359 = EDGE_CURVE ( 'NONE', #235, #155, #163, .T. ) ;
#360 = NEXT_ASSEMBLY_USAGE_OCCURRENCE ( 'NAUO1', ' ', ' ', #267, #26, $ ) ;
#361 = NEXT_ASSEMBLY_USAGE_OCCURRENCE ( 'NAUO2', ' ', ' ', #267, #26, $ ) ;
ENDSEC;
END-ISO-10303-21;
