ISO-10303-21;
HEADER;
FILE_DESCRIPTION (( 'STEP AP203' ),
    '1' );
FILE_NAME ('4307-E0W.STEP',
    '2015-06-17T20:43:04',
    ( 'admin' ),
    ( '' ),
    'SwSTEP 2.0',
    'SolidWorks 2014',
    '' );
FILE_SCHEMA (( 'CONFIG_CONTROL_DESIGN' ));
ENDSEC;

DATA;
#1 = APPROVAL ( #53, 'UNSPECIFIED' ) ;
#2 =( NAMED_UNIT ( * ) SI_UNIT ( $, .STERADIAN. ) SOLID_ANGLE_UNIT ( ) );
#3 = CARTESIAN_POINT ( 'NONE',  ( 0.0000000000000000000, 0.0000000000000000000, 0.8532037497445419400 ) ) ;
#4 = ORIENTED_EDGE ( 'NONE', *, *, #300, .F. ) ;
#5 = AXIS2_PLACEMENT_3D ( 'NONE', #269, #163, #75 ) ;
#6 = DIRECTION ( 'NONE',  ( -1.000000000000000000, 0.0000000000000000000, 0.0000000000000000000 ) ) ;
#7 = CARTESIAN_POINT ( 'NONE',  ( 3.000000000000000000, 0.0000000000000000000, 0.5228471519785711200 ) ) ;
#8 = ORIENTED_EDGE ( 'NONE', *, *, #31, .F. ) ;
#9 = CARTESIAN_POINT ( 'NONE',  ( 3.000000000000000000, 0.0000000000000000000, 1.300000000000000000 ) ) ;
#10 = EDGE_LOOP ( 'NONE', ( #245, #353, #334, #199 ) ) ;
#11 = CC_DESIGN_APPROVAL ( #30, ( #175 ) ) ;
#12 = AXIS2_PLACEMENT_3D ( 'NONE', #108, #58, #47 ) ;
#13 = LINE ( 'NONE', #48, #342 ) ;
#14 = EDGE_CURVE ( 'NONE', #320, #82, #180, .T. ) ;
#15 = ORIENTED_EDGE ( 'NONE', *, *, #253, .T. ) ;
#16 = ORIENTED_EDGE ( 'NONE', *, *, #323, .F. ) ;
#17 = CARTESIAN_POINT ( 'NONE',  ( 0.0000000000000000000, 0.0000000000000000000, 0.8532037497445419400 ) ) ;
#18 = ORIENTED_EDGE ( 'NONE', *, *, #300, .T. ) ;
#19 = COORDINATED_UNIVERSAL_TIME_OFFSET ( 5, 0, .BEHIND. ) ;
#20 = DIRECTION ( 'NONE',  ( 0.0000000000000000000, 0.0000000000000000000, -1.000000000000000000 ) ) ;
#21 = DATE_AND_TIME ( #247, #64 ) ;
#22 = CONICAL_SURFACE ( 'NONE', #357, 2.768390708562240100, 0.6114562898284732200 ) ;
#23 =( LENGTH_UNIT ( ) NAMED_UNIT ( * ) SI_UNIT ( .MILLI., .METRE. ) );
#24 = AXIS2_PLACEMENT_3D ( 'NONE', #144, #291, #120 ) ;
#25 = VERTEX_POINT ( 'NONE', #131 ) ;
#26 = ORIENTED_EDGE ( 'NONE', *, *, #55, .F. ) ;
#27 = DIRECTION ( 'NONE',  ( 0.0000000000000000000, 1.000000000000000000, 0.0000000000000000000 ) ) ;
#28 = DATE_AND_TIME ( #170, #49 ) ;
#29 = SPHERICAL_SURFACE ( 'NONE', #116, 8.800000000000002500 ) ;
#30 = APPROVAL ( #344, 'UNSPECIFIED' ) ;
#31 = EDGE_CURVE ( 'NONE', #261, #43, #90, .T. ) ;
#32 = ORIENTED_EDGE ( 'NONE', *, *, #318, .F. ) ;
#33 = CIRCLE ( 'NONE', #195, 2.768390708562243700 ) ;
#34 = APPLICATION_CONTEXT ( 'configuration controlled 3d designs of mechanical parts and assemblies' ) ;
#35 = DIRECTION ( 'NONE',  ( 0.0000000000000000000, 0.0000000000000000000, -1.000000000000000000 ) ) ;
#36 = VERTEX_POINT ( 'NONE', #337 ) ;
#37 = CALENDAR_DATE ( 2015, 17, 6 ) ;
#38 = CARTESIAN_POINT ( 'NONE',  ( 0.0000000000000000000, 5.388445916248355000E-016, -1.300000000000001600 ) ) ;
#39 = EDGE_CURVE ( 'NONE', #36, #320, #106, .T. ) ;
#40 = FACE_OUTER_BOUND ( 'NONE', #346, .T. ) ;
#41 = ADVANCED_FACE ( 'NONE', ( #302 ), #155, .T. ) ;
#42 = CARTESIAN_POINT ( 'NONE',  ( -2.768390708562243700, 3.532120608736042400E-016, -0.8532037497445419400 ) ) ;
#43 = VERTEX_POINT ( 'NONE', #229 ) ;
#44 = CC_DESIGN_APPROVAL ( #76, ( #125 ) ) ;
#45 = CARTESIAN_POINT ( 'NONE',  ( 0.0000000000000000000, 0.0000000000000000000, -0.5228471519785729000 ) ) ;
#46 = AXIS2_PLACEMENT_3D ( 'NONE', #207, #249, #91 ) ;
#47 = DIRECTION ( 'NONE',  ( -1.000000000000000000, 0.0000000000000000000, 0.0000000000000000000 ) ) ;
#48 = CARTESIAN_POINT ( 'NONE',  ( 2.768390708562240100, 3.390300820030020400E-016, 0.8532037497445436000 ) ) ;
#49 = LOCAL_TIME ( 16, 43, 4.000000000000000000, #19 ) ;
#50 = DIRECTION ( 'NONE',  ( -1.000000000000000000, 0.0000000000000000000, 0.0000000000000000000 ) ) ;
#51 = VERTEX_POINT ( 'NONE', #96 ) ;
#52 =( GEOMETRIC_REPRESENTATION_CONTEXT ( 3 ) GLOBAL_UNCERTAINTY_ASSIGNED_CONTEXT ( ( #105 ) ) GLOBAL_UNIT_ASSIGNED_CONTEXT ( ( #23, #231, #2 ) ) REPRESENTATION_CONTEXT ( 'NONE', 'WORKASPACE' ) );
#53 = APPROVAL_STATUS ( 'not_yet_approved' ) ;
#54 = CYLINDRICAL_SURFACE ( 'NONE', #46, 3.000000000000000000 ) ;
#55 = EDGE_CURVE ( 'NONE', #82, #320, #78, .T. ) ;
#56 = PERSON_AND_ORGANIZATION ( #260, #292 ) ;
#57 = EDGE_LOOP ( 'NONE', ( #194, #81, #16, #211, #218 ) ) ;
#58 = DIRECTION ( 'NONE',  ( -0.0000000000000000000, -0.0000000000000000000, 1.000000000000000000 ) ) ;
#59 = ORIENTED_EDGE ( 'NONE', *, *, #270, .F. ) ;
#60 = VERTEX_POINT ( 'NONE', #286 ) ;
#61 = AXIS2_PLACEMENT_3D ( 'NONE', #104, #146, #317 ) ;
#62 = DIRECTION ( 'NONE',  ( 0.0000000000000000000, 0.0000000000000000000, -1.000000000000000000 ) ) ;
#63 = ADVANCED_FACE ( 'NONE', ( #232 ), #306, .T. ) ;
#64 = LOCAL_TIME ( 16, 43, 4.000000000000000000, #126 ) ;
#65 = DIRECTION ( 'NONE',  ( -1.000000000000000000, 0.0000000000000000000, 0.0000000000000000000 ) ) ;
#66 = PERSON_AND_ORGANIZATION ( #260, #292 ) ;
#67 = AXIS2_PLACEMENT_3D ( 'NONE', #224, #240, #336 ) ;
#68 = ORIENTED_EDGE ( 'NONE', *, *, #219, .F. ) ;
#69 = CYLINDRICAL_SURFACE ( 'NONE', #327, 3.000000000000000000 ) ;
#70 = CIRCLE ( 'NONE', #213, 8.800000000000002500 ) ;
#71 = CARTESIAN_POINT ( 'NONE',  ( 0.0000000000000000000, 0.0000000000000000000, 7.500000000000000900 ) ) ;
#72 = CARTESIAN_POINT ( 'NONE',  ( 0.0000000000000000000, 0.0000000000000000000, -7.500000000000000900 ) ) ;
#73 = ORIENTED_EDGE ( 'NONE', *, *, #275, .F. ) ;
#74 = SPHERICAL_SURFACE ( 'NONE', #198, 8.800000000000002500 ) ;
#75 = DIRECTION ( 'NONE',  ( 1.000000000000000000, 0.0000000000000000000, 0.0000000000000000000 ) ) ;
#76 = APPROVAL ( #160, 'UNSPECIFIED' ) ;
#77 = ORIENTED_EDGE ( 'NONE', *, *, #39, .F. ) ;
#78 = CIRCLE ( 'NONE', #364, 3.000000000000000000 ) ;
#79 = DIRECTION ( 'NONE',  ( 0.0000000000000000000, 1.000000000000000000, 0.0000000000000000000 ) ) ;
#80 = CARTESIAN_POINT ( 'NONE',  ( -2.768390708562240100, 0.0000000000000000000, 0.8532037497445436000 ) ) ;
#81 = ORIENTED_EDGE ( 'NONE', *, *, #266, .F. ) ;
#82 = VERTEX_POINT ( 'NONE', #7 ) ;
#83 = ADVANCED_FACE ( 'NONE', ( #325 ), #114, .T. ) ;
#84 = DIRECTION ( 'NONE',  ( 1.000000000000000000, 0.0000000000000000000, 0.0000000000000000000 ) ) ;
#85 = DIRECTION ( 'NONE',  ( 0.0000000000000000000, 1.000000000000000000, 0.0000000000000000000 ) ) ;
#86 = ORIENTED_EDGE ( 'NONE', *, *, #39, .T. ) ;
#87 = APPROVAL_DATE_TIME ( #21, #1 ) ;
#88 = DIRECTION ( 'NONE',  ( -0.0000000000000000000, -0.0000000000000000000, 1.000000000000000000 ) ) ;
#89 = CC_DESIGN_APPROVAL ( #1, ( #192 ) ) ;
#90 = CIRCLE ( 'NONE', #67, 2.768390708562243700 ) ;
#91 = DIRECTION ( 'NONE',  ( 1.000000000000000000, 0.0000000000000000000, 0.0000000000000000000 ) ) ;
#92 = CARTESIAN_POINT ( 'NONE',  ( 0.0000000000000000000, 0.0000000000000000000, 7.500000000000000900 ) ) ;
#93 = ORIENTED_EDGE ( 'NONE', *, *, #310, .T. ) ;
#94 = AXIS2_PLACEMENT_3D ( 'NONE', #361, #347, #354 ) ;
#95 = DATE_AND_TIME ( #190, #335 ) ;
#96 = CARTESIAN_POINT ( 'NONE',  ( -3.390300820030025400E-016, -2.768390708562243700, -0.8532037497445419400 ) ) ;
#97 = EDGE_LOOP ( 'NONE', ( #77, #273, #309, #338 ) ) ;
#98 = DIRECTION ( 'NONE',  ( -0.0000000000000000000, -0.0000000000000000000, 1.000000000000000000 ) ) ;
#99 = CARTESIAN_POINT ( 'NONE',  ( 2.768390708562243700, 0.0000000000000000000, -0.8532037497445419400 ) ) ;
#100 = VERTEX_POINT ( 'NONE', #252 ) ;
#101 = AXIS2_PLACEMENT_3D ( 'NONE', #3, #98, #222 ) ;
#102 = ADVANCED_FACE ( 'NONE', ( #319 ), #74, .T. ) ;
#103 = APPLICATION_CONTEXT ( 'configuration controlled 3d designs of mechanical parts and assemblies' ) ;
#104 = CARTESIAN_POINT ( 'NONE',  ( 0.0000000000000000000, 0.0000000000000000000, 0.0000000000000000000 ) ) ;
#105 = UNCERTAINTY_MEASURE_WITH_UNIT (LENGTH_MEASURE( 1.000000000000000100E-005 ), #23, 'distance_accuracy_value', 'NONE');
#106 = LINE ( 'NONE', #267, #173 ) ;
#107 = CONICAL_SURFACE ( 'NONE', #112, 3.000000000000000000, 0.6114562898284711100 ) ;
#108 = CARTESIAN_POINT ( 'NONE',  ( 0.0000000000000000000, 0.0000000000000000000, 0.8532037497445419400 ) ) ;
#109 = ORIENTED_EDGE ( 'NONE', *, *, #323, .T. ) ;
#110 = CIRCLE ( 'NONE', #282, 8.800000000000002500 ) ;
#111 = DIRECTION ( 'NONE',  ( -0.5740604972870492200, 7.030213505195227300E-017, 0.8188128879387192000 ) ) ;
#112 = AXIS2_PLACEMENT_3D ( 'NONE', #322, #296, #135 ) ;
#113 = EDGE_LOOP ( 'NONE', ( #32, #274, #178, #109 ) ) ;
#114 = SPHERICAL_SURFACE ( 'NONE', #168, 8.800000000000002500 ) ;
#115 = DIRECTION ( 'NONE',  ( -1.224646799147353000E-016, -1.000000000000000000, 0.0000000000000000000 ) ) ;
#116 = AXIS2_PLACEMENT_3D ( 'NONE', #71, #156, #85 ) ;
#117 = VERTEX_POINT ( 'NONE', #345 ) ;
#118 = LOCAL_TIME ( 16, 43, 4.000000000000000000, #216 ) ;
#119 = FACE_OUTER_BOUND ( 'NONE', #10, .T. ) ;
#120 = DIRECTION ( 'NONE',  ( 1.000000000000000000, 0.0000000000000000000, 0.0000000000000000000 ) ) ;
#121 = ORIENTED_EDGE ( 'NONE', *, *, #253, .F. ) ;
#122 = EDGE_CURVE ( 'NONE', #100, #148, #171, .T. ) ;
#123 = CIRCLE ( 'NONE', #101, 2.768390708562240100 ) ;
#124 = DIRECTION ( 'NONE',  ( -0.0000000000000000000, -0.0000000000000000000, 1.000000000000000000 ) ) ;
#125 = PRODUCT_DEFINITION_FORMATION_WITH_SPECIFIED_SOURCE ( 'ANY', '', #360, .NOT_KNOWN. ) ;
#126 = COORDINATED_UNIVERSAL_TIME_OFFSET ( 5, 0, .BEHIND. ) ;
#127 = AXIS2_PLACEMENT_3D ( 'NONE', #17, #299, #50 ) ;
#128 = DIRECTION ( 'NONE',  ( 1.000000000000000000, -0.0000000000000000000, 0.0000000000000000000 ) ) ;
#129 = ORIENTED_EDGE ( 'NONE', *, *, #270, .T. ) ;
#130 = ORIENTED_EDGE ( 'NONE', *, *, #285, .F. ) ;
#131 = CARTESIAN_POINT ( 'NONE',  ( 0.0000000000000000000, 5.388445916248355000E-016, 1.300000000000001600 ) ) ;
#132 = CARTESIAN_POINT ( 'NONE',  ( 0.0000000000000000000, 0.0000000000000000000, 0.8532037497445436000 ) ) ;
#133 = PERSON_AND_ORGANIZATION ( #260, #292 ) ;
#134 = CARTESIAN_POINT ( 'NONE',  ( 2.768390708562240100, 3.532120608736039900E-016, 0.8532037497445419400 ) ) ;
#135 = DIRECTION ( 'NONE',  ( 1.000000000000000000, 0.0000000000000000000, 0.0000000000000000000 ) ) ;
#136 = DIRECTION ( 'NONE',  ( 1.000000000000000000, 0.0000000000000000000, 0.0000000000000000000 ) ) ;
#137 = ORIENTED_EDGE ( 'NONE', *, *, #288, .T. ) ;
#138 = PRODUCT_DEFINITION_SHAPE ( 'NONE', 'NONE',  #175 ) ;
#139 = CIRCLE ( 'NONE', #127, 2.768390708562240100 ) ;
#140 = PERSON_AND_ORGANIZATION ( #260, #292 ) ;
#141 = ORIENTED_EDGE ( 'NONE', *, *, #288, .F. ) ;
#142 = DATE_AND_TIME ( #37, #118 ) ;
#143 = DIRECTION ( 'NONE',  ( 1.000000000000000000, 0.0000000000000000000, 0.0000000000000000000 ) ) ;
#144 = CARTESIAN_POINT ( 'NONE',  ( 0.0000000000000000000, 0.0000000000000000000, -0.8532037497445419400 ) ) ;
#145 = AXIS2_PLACEMENT_3D ( 'NONE', #132, #35, #263 ) ;
#146 = DIRECTION ( 'NONE',  ( 0.0000000000000000000, 0.0000000000000000000, 1.000000000000000000 ) ) ;
#147 = DIRECTION ( 'NONE',  ( -1.000000000000000000, 0.0000000000000000000, 0.0000000000000000000 ) ) ;
#148 = VERTEX_POINT ( 'NONE', #176 ) ;
#149 = CC_DESIGN_PERSON_AND_ORGANIZATION_ASSIGNMENT ( #174, #197, ( #192 ) ) ;
#150 = VERTEX_POINT ( 'NONE', #99 ) ;
#151 = CARTESIAN_POINT ( 'NONE',  ( 0.0000000000000000000, 0.0000000000000000000, -0.5228471519785729000 ) ) ;
#152 = EDGE_LOOP ( 'NONE', ( #59, #18, #228, #204, #312 ) ) ;
#153 = MECHANICAL_CONTEXT ( 'NONE', #34, 'mechanical' ) ;
#154 = ORIENTED_EDGE ( 'NONE', *, *, #193, .T. ) ;
#155 = SPHERICAL_SURFACE ( 'NONE', #305, 8.800000000000002500 ) ;
#156 = DIRECTION ( 'NONE',  ( -1.000000000000000000, 0.0000000000000000000, 0.0000000000000000000 ) ) ;
#157 = FACE_OUTER_BOUND ( 'NONE', #244, .T. ) ;
#158 = AXIS2_PLACEMENT_3D ( 'NONE', #45, #124, #84 ) ;
#159 = DIRECTION ( 'NONE',  ( -1.224646799147353000E-016, -1.000000000000000000, 0.0000000000000000000 ) ) ;
#160 = APPROVAL_STATUS ( 'not_yet_approved' ) ;
#161 = ORIENTED_EDGE ( 'NONE', *, *, #122, .F. ) ;
#162 = ADVANCED_FACE ( 'NONE', ( #157 ), #69, .T. ) ;
#163 = DIRECTION ( 'NONE',  ( -0.0000000000000000000, -0.0000000000000000000, 1.000000000000000000 ) ) ;
#164 = DIRECTION ( 'NONE',  ( 0.0000000000000000000, 0.0000000000000000000, -1.000000000000000000 ) ) ;
#165 = DIRECTION ( 'NONE',  ( 1.000000000000000000, 0.0000000000000000000, 0.0000000000000000000 ) ) ;
#166 = CIRCLE ( 'NONE', #94, 2.768390708562240100 ) ;
#167 = DIRECTION ( 'NONE',  ( -1.000000000000000000, 0.0000000000000000000, 0.0000000000000000000 ) ) ;
#168 = AXIS2_PLACEMENT_3D ( 'NONE', #72, #206, #79 ) ;
#169 = ORIENTED_EDGE ( 'NONE', *, *, #14, .T. ) ;
#170 = CALENDAR_DATE ( 2015, 17, 6 ) ;
#171 = CIRCLE ( 'NONE', #12, 2.768390708562240100 ) ;
#172 = PERSON_AND_ORGANIZATION ( #260, #292 ) ;
#173 = VECTOR ( 'NONE', #201, 1000.000000000000000 ) ;
#174 = PERSON_AND_ORGANIZATION ( #260, #292 ) ;
#175 = PRODUCT_DEFINITION ( 'UNKNOWN', '', #125, #268 ) ;
#176 = CARTESIAN_POINT ( 'NONE',  ( -3.390300820030022900E-016, -2.768390708562241900, 0.8532037497445419400 ) ) ;
#177 = DATE_TIME_ROLE ( 'creation_date' ) ;
#178 = ORIENTED_EDGE ( 'NONE', *, *, #219, .T. ) ;
#179 = EDGE_CURVE ( 'NONE', #261, #36, #185, .T. ) ;
#180 = CIRCLE ( 'NONE', #237, 3.000000000000000000 ) ;
#181 = CLOSED_SHELL ( 'NONE', ( #343, #314, #278, #162, #102, #83, #188, #41, #63, #208 ) ) ;
#182 = CIRCLE ( 'NONE', #351, 3.000000000000000000 ) ;
#183 = DIRECTION ( 'NONE',  ( -1.000000000000000000, 1.224646799147353200E-016, 0.0000000000000000000 ) ) ;
#184 = EDGE_CURVE ( 'NONE', #150, #117, #246, .T. ) ;
#185 = LINE ( 'NONE', #186, #215 ) ;
#186 = CARTESIAN_POINT ( 'NONE',  ( -3.000000000000000000, 3.673940397442059900E-016, -0.5228471519785729000 ) ) ;
#187 = CARTESIAN_POINT ( 'NONE',  ( 3.000000000000000000, 0.0000000000000000000, -0.5228471519785729000 ) ) ;
#188 = ADVANCED_FACE ( 'NONE', ( #243 ), #54, .T. ) ;
#189 = EDGE_LOOP ( 'NONE', ( #4, #121, #161, #311, #26 ) ) ;
#190 = CALENDAR_DATE ( 2015, 17, 6 ) ;
#191 = LOCAL_TIME ( 16, 43, 4.000000000000000000, #313 ) ;
#192 = SECURITY_CLASSIFICATION ( '', '', #328 ) ;
#193 = EDGE_CURVE ( 'NONE', #60, #100, #139, .T. ) ;
#194 = ORIENTED_EDGE ( 'NONE', *, *, #179, .F. ) ;
#195 = AXIS2_PLACEMENT_3D ( 'NONE', #277, #164, #265 ) ;
#196 = LINE ( 'NONE', #9, #225 ) ;
#197 = PERSON_AND_ORGANIZATION_ROLE ( 'classification_officer' ) ;
#198 = AXIS2_PLACEMENT_3D ( 'NONE', #366, #6, #27 ) ;
#199 = ORIENTED_EDGE ( 'NONE', *, *, #31, .T. ) ;
#200 = CALENDAR_DATE ( 2015, 17, 6 ) ;
#201 = DIRECTION ( 'NONE',  ( -0.0000000000000000000, -0.0000000000000000000, 1.000000000000000000 ) ) ;
#202 = FACE_OUTER_BOUND ( 'NONE', #189, .T. ) ;
#203 = SHAPE_DEFINITION_REPRESENTATION ( #138, #230 ) ;
#204 = ORIENTED_EDGE ( 'NONE', *, *, #294, .F. ) ;
#205 = CIRCLE ( 'NONE', #298, 8.800000000000002500 ) ;
#206 = DIRECTION ( 'NONE',  ( -1.000000000000000000, 0.0000000000000000000, 0.0000000000000000000 ) ) ;
#207 = CARTESIAN_POINT ( 'NONE',  ( 0.0000000000000000000, 0.0000000000000000000, 1.300000000000000000 ) ) ;
#208 = ADVANCED_FACE ( 'NONE', ( #202 ), #22, .T. ) ;
#209 = VERTEX_POINT ( 'NONE', #134 ) ;
#210 = DIRECTION ( 'NONE',  ( -0.0000000000000000000, -0.0000000000000000000, 1.000000000000000000 ) ) ;
#211 = ORIENTED_EDGE ( 'NONE', *, *, #184, .T. ) ;
#212 = APPLICATION_PROTOCOL_DEFINITION ( 'international standard', 'config_control_design', 1994, #103 ) ;
#213 = AXIS2_PLACEMENT_3D ( 'NONE', #279, #183, #159 ) ;
#214 = AXIS2_PLACEMENT_3D ( 'NONE', #326, #324, #262 ) ;
#215 = VECTOR ( 'NONE', #111, 1000.000000000000100 ) ;
#216 = COORDINATED_UNIVERSAL_TIME_OFFSET ( 5, 0, .BEHIND. ) ;
#217 = CARTESIAN_POINT ( 'NONE',  ( 0.0000000000000000000, 0.0000000000000000000, 0.5228471519785711200 ) ) ;
#218 = ORIENTED_EDGE ( 'NONE', *, *, #331, .F. ) ;
#219 = EDGE_CURVE ( 'NONE', #43, #150, #284, .T. ) ;
#220 = ORIENTED_EDGE ( 'NONE', *, *, #179, .T. ) ;
#221 = VECTOR ( 'NONE', #276, 1000.000000000000000 ) ;
#222 = DIRECTION ( 'NONE',  ( -1.000000000000000000, 0.0000000000000000000, 0.0000000000000000000 ) ) ;
#223 = EDGE_LOOP ( 'NONE', ( #304, #15, #129, #271 ) ) ;
#224 = CARTESIAN_POINT ( 'NONE',  ( 0.0000000000000000000, 0.0000000000000000000, -0.8532037497445419400 ) ) ;
#225 = VECTOR ( 'NONE', #210, 1000.000000000000000 ) ;
#226 = DIRECTION ( 'NONE',  ( -1.000000000000000000, 0.0000000000000000000, 0.0000000000000000000 ) ) ;
#227 = CC_DESIGN_SECURITY_CLASSIFICATION ( #192, ( #125 ) ) ;
#228 = ORIENTED_EDGE ( 'NONE', *, *, #14, .F. ) ;
#229 = CARTESIAN_POINT ( 'NONE',  ( 0.0000000000000000000, 2.768390708562243700, -0.8532037497445419400 ) ) ;
#230 = ADVANCED_BREP_SHAPE_REPRESENTATION ( '4307-E0W', ( #315, #61 ), #52 ) ;
#231 =( NAMED_UNIT ( * ) PLANE_ANGLE_UNIT ( ) SI_UNIT ( $, .RADIAN. ) );
#232 = FACE_OUTER_BOUND ( 'NONE', #57, .T. ) ;
#233 = APPROVAL_PERSON_ORGANIZATION ( #255, #30, #332 ) ;
#234 = CARTESIAN_POINT ( 'NONE',  ( 0.0000000000000000000, 0.0000000000000000000, -7.500000000000000900 ) ) ;
#235 = APPROVAL_DATE_TIME ( #28, #76 ) ;
#236 = CIRCLE ( 'NONE', #158, 3.000000000000000000 ) ;
#237 = AXIS2_PLACEMENT_3D ( 'NONE', #217, #62, #226 ) ;
#238 = CARTESIAN_POINT ( 'NONE',  ( 0.0000000000000000000, 0.0000000000000000000, 1.300000000000000000 ) ) ;
#239 = PRODUCT_RELATED_PRODUCT_CATEGORY ( 'detail', '', ( #360 ) ) ;
#240 = DIRECTION ( 'NONE',  ( 0.0000000000000000000, 0.0000000000000000000, -1.000000000000000000 ) ) ;
#241 = DIRECTION ( 'NONE',  ( 0.0000000000000000000, 0.0000000000000000000, -1.000000000000000000 ) ) ;
#242 = DIRECTION ( 'NONE',  ( 0.5740604972870510000, 7.030213505195248200E-017, -0.8188128879387180900 ) ) ;
#243 = FACE_OUTER_BOUND ( 'NONE', #97, .T. ) ;
#244 = EDGE_LOOP ( 'NONE', ( #137, #86, #169, #130 ) ) ;
#245 = ORIENTED_EDGE ( 'NONE', *, *, #352, .F. ) ;
#246 = LINE ( 'NONE', #187, #339 ) ;
#247 = CALENDAR_DATE ( 2015, 17, 6 ) ;
#248 = CIRCLE ( 'NONE', #308, 8.800000000000002500 ) ;
#249 = DIRECTION ( 'NONE',  ( -0.0000000000000000000, -0.0000000000000000000, 1.000000000000000000 ) ) ;
#250 = CONICAL_SURFACE ( 'NONE', #145, 2.768390708562240100, 0.6114562898284732200 ) ;
#251 = CC_DESIGN_PERSON_AND_ORGANIZATION_ASSIGNMENT ( #66, #290, ( #360 ) ) ;
#252 = CARTESIAN_POINT ( 'NONE',  ( -2.768390708562240100, 0.0000000000000000000, 0.8532037497445419400 ) ) ;
#253 = EDGE_CURVE ( 'NONE', #148, #209, #166, .T. ) ;
#254 = EDGE_LOOP ( 'NONE', ( #154, #329, #93, #73 ) ) ;
#255 = PERSON_AND_ORGANIZATION ( #260, #292 ) ;
#256 = CC_DESIGN_DATE_AND_TIME_ASSIGNMENT ( #95, #289, ( #192 ) ) ;
#257 = CARTESIAN_POINT ( 'NONE',  ( 0.0000000000000000000, 0.0000000000000000000, 0.8532037497445436000 ) ) ;
#258 = CIRCLE ( 'NONE', #24, 2.768390708562243700 ) ;
#259 = CC_DESIGN_PERSON_AND_ORGANIZATION_ASSIGNMENT ( #140, #301, ( #125 ) ) ;
#260 = PERSON ( 'UNSPECIFIED', 'UNSPECIFIED', 'UNSPECIFIED', ('UNSPECIFIED'), ('UNSPECIFIED'), ('UNSPECIFIED') ) ;
#261 = VERTEX_POINT ( 'NONE', #42 ) ;
#262 = DIRECTION ( 'NONE',  ( 1.000000000000000000, 0.0000000000000000000, 0.0000000000000000000 ) ) ;
#263 = DIRECTION ( 'NONE',  ( -1.000000000000000000, 0.0000000000000000000, 0.0000000000000000000 ) ) ;
#264 = APPROVAL_PERSON_ORGANIZATION ( #56, #1, #272 ) ;
#265 = DIRECTION ( 'NONE',  ( 1.000000000000000000, 0.0000000000000000000, 0.0000000000000000000 ) ) ;
#266 = EDGE_CURVE ( 'NONE', #51, #261, #258, .T. ) ;
#267 = CARTESIAN_POINT ( 'NONE',  ( -3.000000000000000000, 3.673940397442059900E-016, 1.300000000000000000 ) ) ;
#268 = DESIGN_CONTEXT ( 'detailed design', #103, 'design' ) ;
#269 = CARTESIAN_POINT ( 'NONE',  ( 0.0000000000000000000, 0.0000000000000000000, -0.5228471519785729000 ) ) ;
#270 = EDGE_CURVE ( 'NONE', #209, #60, #123, .T. ) ;
#271 = ORIENTED_EDGE ( 'NONE', *, *, #275, .T. ) ;
#272 = APPROVAL_ROLE ( '' ) ;
#273 = ORIENTED_EDGE ( 'NONE', *, *, #331, .T. ) ;
#274 = ORIENTED_EDGE ( 'NONE', *, *, #352, .T. ) ;
#275 = EDGE_CURVE ( 'NONE', #60, #25, #248, .T. ) ;
#276 = DIRECTION ( 'NONE',  ( -0.5740604972870510000, 0.0000000000000000000, -0.8188128879387180900 ) ) ;
#277 = CARTESIAN_POINT ( 'NONE',  ( 0.0000000000000000000, 0.0000000000000000000, -0.8532037497445419400 ) ) ;
#278 = ADVANCED_FACE ( 'NONE', ( #119 ), #29, .T. ) ;
#279 = CARTESIAN_POINT ( 'NONE',  ( 0.0000000000000000000, 0.0000000000000000000, 7.500000000000000900 ) ) ;
#280 = DIRECTION ( 'NONE',  ( -0.0000000000000000000, -0.0000000000000000000, 1.000000000000000000 ) ) ;
#281 = ORIENTED_EDGE ( 'NONE', *, *, #184, .F. ) ;
#282 = AXIS2_PLACEMENT_3D ( 'NONE', #234, #362, #115 ) ;
#283 = CARTESIAN_POINT ( 'NONE',  ( 0.0000000000000000000, 0.0000000000000000000, 0.5228471519785711200 ) ) ;
#284 = CIRCLE ( 'NONE', #214, 2.768390708562243700 ) ;
#285 = EDGE_CURVE ( 'NONE', #117, #82, #196, .T. ) ;
#286 = CARTESIAN_POINT ( 'NONE',  ( 0.0000000000000000000, 2.768390708562241900, 0.8532037497445419400 ) ) ;
#287 = LINE ( 'NONE', #80, #221 ) ;
#288 = EDGE_CURVE ( 'NONE', #117, #36, #182, .T. ) ;
#289 = DATE_TIME_ROLE ( 'classification_date' ) ;
#290 = PERSON_AND_ORGANIZATION_ROLE ( 'design_owner' ) ;
#291 = DIRECTION ( 'NONE',  ( 0.0000000000000000000, 0.0000000000000000000, -1.000000000000000000 ) ) ;
#292 = ORGANIZATION ( 'UNSPECIFIED', 'UNSPECIFIED', '' ) ;
#293 = CARTESIAN_POINT ( 'NONE',  ( 0.0000000000000000000, 0.0000000000000000000, -7.500000000000000900 ) ) ;
#294 = EDGE_CURVE ( 'NONE', #100, #320, #287, .T. ) ;
#295 = CARTESIAN_POINT ( 'NONE',  ( -3.000000000000000000, 3.673940397442059900E-016, 0.5228471519785711200 ) ) ;
#296 = DIRECTION ( 'NONE',  ( -0.0000000000000000000, -0.0000000000000000000, 1.000000000000000000 ) ) ;
#297 = PERSON_AND_ORGANIZATION ( #260, #292 ) ;
#298 = AXIS2_PLACEMENT_3D ( 'NONE', #92, #143, #20 ) ;
#299 = DIRECTION ( 'NONE',  ( -0.0000000000000000000, -0.0000000000000000000, 1.000000000000000000 ) ) ;
#300 = EDGE_CURVE ( 'NONE', #209, #82, #13, .T. ) ;
#301 = PERSON_AND_ORGANIZATION_ROLE ( 'design_supplier' ) ;
#302 = FACE_OUTER_BOUND ( 'NONE', #113, .T. ) ;
#303 = APPROVAL_PERSON_ORGANIZATION ( #133, #76, #340 ) ;
#304 = ORIENTED_EDGE ( 'NONE', *, *, #310, .F. ) ;
#305 = AXIS2_PLACEMENT_3D ( 'NONE', #348, #65, #359 ) ;
#306 = CONICAL_SURFACE ( 'NONE', #5, 3.000000000000000000, 0.6114562898284711100 ) ;
#307 = APPROVAL_DATE_TIME ( #142, #30 ) ;
#308 = AXIS2_PLACEMENT_3D ( 'NONE', #293, #128, #350 ) ;
#309 = ORIENTED_EDGE ( 'NONE', *, *, #285, .T. ) ;
#310 = EDGE_CURVE ( 'NONE', #148, #25, #110, .T. ) ;
#311 = ORIENTED_EDGE ( 'NONE', *, *, #294, .T. ) ;
#312 = ORIENTED_EDGE ( 'NONE', *, *, #193, .F. ) ;
#313 = COORDINATED_UNIVERSAL_TIME_OFFSET ( 5, 0, .BEHIND. ) ;
#314 = ADVANCED_FACE ( 'NONE', ( #40 ), #107, .T. ) ;
#315 = MANIFOLD_SOLID_BREP ( '4307-001-1-solid1', #181 ) ;
#316 = CC_DESIGN_DATE_AND_TIME_ASSIGNMENT ( #365, #177, ( #175 ) ) ;
#317 = DIRECTION ( 'NONE',  ( 1.000000000000000000, 0.0000000000000000000, 0.0000000000000000000 ) ) ;
#318 = EDGE_CURVE ( 'NONE', #341, #51, #70, .T. ) ;
#319 = FACE_OUTER_BOUND ( 'NONE', #254, .T. ) ;
#320 = VERTEX_POINT ( 'NONE', #295 ) ;
#321 = FACE_OUTER_BOUND ( 'NONE', #152, .T. ) ;
#322 = CARTESIAN_POINT ( 'NONE',  ( 0.0000000000000000000, 0.0000000000000000000, -0.5228471519785729000 ) ) ;
#323 = EDGE_CURVE ( 'NONE', #150, #51, #33, .T. ) ;
#324 = DIRECTION ( 'NONE',  ( 0.0000000000000000000, 0.0000000000000000000, -1.000000000000000000 ) ) ;
#325 = FACE_OUTER_BOUND ( 'NONE', #223, .T. ) ;
#326 = CARTESIAN_POINT ( 'NONE',  ( 0.0000000000000000000, 0.0000000000000000000, -0.8532037497445419400 ) ) ;
#327 = AXIS2_PLACEMENT_3D ( 'NONE', #238, #88, #136 ) ;
#328 = SECURITY_CLASSIFICATION_LEVEL ( 'unclassified' ) ;
#329 = ORIENTED_EDGE ( 'NONE', *, *, #122, .T. ) ;
#330 = PERSON_AND_ORGANIZATION_ROLE ( 'creator' ) ;
#331 = EDGE_CURVE ( 'NONE', #36, #117, #236, .T. ) ;
#332 = APPROVAL_ROLE ( '' ) ;
#333 = CC_DESIGN_PERSON_AND_ORGANIZATION_ASSIGNMENT ( #297, #330, ( #125 ) ) ;
#334 = ORIENTED_EDGE ( 'NONE', *, *, #266, .T. ) ;
#335 = LOCAL_TIME ( 16, 43, 4.000000000000000000, #358 ) ;
#336 = DIRECTION ( 'NONE',  ( 1.000000000000000000, 0.0000000000000000000, 0.0000000000000000000 ) ) ;
#337 = CARTESIAN_POINT ( 'NONE',  ( -3.000000000000000000, 3.673940397442059900E-016, -0.5228471519785729000 ) ) ;
#338 = ORIENTED_EDGE ( 'NONE', *, *, #55, .T. ) ;
#339 = VECTOR ( 'NONE', #355, 1000.000000000000100 ) ;
#340 = APPROVAL_ROLE ( '' ) ;
#341 = VERTEX_POINT ( 'NONE', #38 ) ;
#342 = VECTOR ( 'NONE', #242, 1000.000000000000000 ) ;
#343 = ADVANCED_FACE ( 'NONE', ( #321 ), #250, .T. ) ;
#344 = APPROVAL_STATUS ( 'not_yet_approved' ) ;
#345 = CARTESIAN_POINT ( 'NONE',  ( 3.000000000000000000, 0.0000000000000000000, -0.5228471519785729000 ) ) ;
#346 = EDGE_LOOP ( 'NONE', ( #8, #220, #141, #281, #68 ) ) ;
#347 = DIRECTION ( 'NONE',  ( -0.0000000000000000000, -0.0000000000000000000, 1.000000000000000000 ) ) ;
#348 = CARTESIAN_POINT ( 'NONE',  ( 0.0000000000000000000, 0.0000000000000000000, 7.500000000000000900 ) ) ;
#349 = APPLICATION_PROTOCOL_DEFINITION ( 'international standard', 'config_control_design', 1994, #34 ) ;
#350 = DIRECTION ( 'NONE',  ( 0.0000000000000000000, 0.0000000000000000000, -1.000000000000000000 ) ) ;
#351 = AXIS2_PLACEMENT_3D ( 'NONE', #151, #280, #165 ) ;
#352 = EDGE_CURVE ( 'NONE', #341, #43, #205, .T. ) ;
#353 = ORIENTED_EDGE ( 'NONE', *, *, #318, .T. ) ;
#354 = DIRECTION ( 'NONE',  ( -1.000000000000000000, 0.0000000000000000000, 0.0000000000000000000 ) ) ;
#355 = DIRECTION ( 'NONE',  ( 0.5740604972870492200, 0.0000000000000000000, 0.8188128879387192000 ) ) ;
#356 = DIRECTION ( 'NONE',  ( 0.0000000000000000000, 0.0000000000000000000, -1.000000000000000000 ) ) ;
#357 = AXIS2_PLACEMENT_3D ( 'NONE', #257, #356, #167 ) ;
#358 = COORDINATED_UNIVERSAL_TIME_OFFSET ( 5, 0, .BEHIND. ) ;
#359 = DIRECTION ( 'NONE',  ( 0.0000000000000000000, 1.000000000000000000, 0.0000000000000000000 ) ) ;
#360 = PRODUCT ( '4307-E0W', '4307-E0W', '', ( #153 ) ) ;
#361 = CARTESIAN_POINT ( 'NONE',  ( 0.0000000000000000000, 0.0000000000000000000, 0.8532037497445419400 ) ) ;
#362 = DIRECTION ( 'NONE',  ( -1.000000000000000000, 1.224646799147353200E-016, 0.0000000000000000000 ) ) ;
#363 = CC_DESIGN_PERSON_AND_ORGANIZATION_ASSIGNMENT ( #172, #367, ( #175 ) ) ;
#364 = AXIS2_PLACEMENT_3D ( 'NONE', #283, #241, #147 ) ;
#365 = DATE_AND_TIME ( #200, #191 ) ;
#366 = CARTESIAN_POINT ( 'NONE',  ( 0.0000000000000000000, 0.0000000000000000000, -7.500000000000000900 ) ) ;
#367 = PERSON_AND_ORGANIZATION_ROLE ( 'creator' ) ;
ENDSEC;
END-ISO-10303-21;
