ISO-10303-21;
HEADER;
FILE_DESCRIPTION (( 'STEP AP203' ),
    '1' );
FILE_NAME ('Web Model 68365.STEP',
    '2017-01-31T19:49:03',
    ( '' ),
    ( '' ),
    'SwSTEP 2.0',
    'SolidWorks 2016',
    '' );
FILE_SCHEMA (( 'CONFIG_CONTROL_DESIGN' ));
ENDSEC;

DATA;
#1 = FACE_OUTER_BOUND ( 'NONE', #76, .T. ) ;
#2 = ORIENTED_EDGE ( 'NONE', *, *, #53, .T. ) ;
#3 = CC_DESIGN_APPROVAL ( #41, ( #45 ) ) ;
#4 = VECTOR ( 'NONE', #214, 1000.000000000000000 ) ;
#5 = ORIENTED_EDGE ( 'NONE', *, *, #118, .F. ) ;
#6 = DIRECTION ( 'NONE',  ( 0.0000000000000000000, -0.0000000000000000000, -1.000000000000000000 ) ) ;
#7 = ORIENTED_EDGE ( 'NONE', *, *, #135, .T. ) ;
#8 = PLANE ( 'NONE',  #159 ) ;
#9 = DIRECTION ( 'NONE',  ( -0.0000000000000000000, 0.0000000000000000000, 1.000000000000000000 ) ) ;
#10 = LINE ( 'NONE', #85, #71 ) ;
#11 = ORIENTED_EDGE ( 'NONE', *, *, #157, .F. ) ;
#12 = ADVANCED_FACE ( 'NONE', ( #95 ), #79, .T. ) ;
#13 = APPROVAL_STATUS ( 'not_yet_approved' ) ;
#14 = PERSON_AND_ORGANIZATION_ROLE ( 'design_supplier' ) ;
#15 = VERTEX_POINT ( 'NONE', #226 ) ;
#16 = APPLICATION_PROTOCOL_DEFINITION ( 'international standard', 'config_control_design', 1994, #124 ) ;
#17 = CC_DESIGN_DATE_AND_TIME_ASSIGNMENT ( #177, #139, ( #45 ) ) ;
#18 = SECURITY_CLASSIFICATION_LEVEL ( 'unclassified' ) ;
#19 = PERSON_AND_ORGANIZATION ( #183, #202 ) ;
#20 = ORIENTED_EDGE ( 'NONE', *, *, #189, .F. ) ;
#21 = ADVANCED_BREP_SHAPE_REPRESENTATION ( 'Web Model 68365', ( #181, #199 ), #205 ) ;
#22 = CC_DESIGN_APPROVAL ( #210, ( #43 ) ) ;
#23 = ORIENTED_EDGE ( 'NONE', *, *, #47, .F. ) ;
#24 = EDGE_CURVE ( 'NONE', #126, #15, #213, .T. ) ;
#25 = VECTOR ( 'NONE', #120, 1000.000000000000000 ) ;
#26 = EDGE_CURVE ( 'NONE', #129, #137, #40, .T. ) ;
#27 = CARTESIAN_POINT ( 'NONE',  ( 8.750000000000000000, -6.250000000000000900, 3.000000000000000000 ) ) ;
#28 = DATE_AND_TIME ( #75, #121 ) ;
#29 = EDGE_CURVE ( 'NONE', #64, #38, #91, .T. ) ;
#30 = ORIENTED_EDGE ( 'NONE', *, *, #189, .T. ) ;
#31 = CC_DESIGN_DATE_AND_TIME_ASSIGNMENT ( #28, #194, ( #80 ) ) ;
#32 = DIRECTION ( 'NONE',  ( -0.0000000000000000000, -0.0000000000000000000, -1.000000000000000000 ) ) ;
#33 = AXIS2_PLACEMENT_3D ( 'NONE', #206, #168, #6 ) ;
#34 = CARTESIAN_POINT ( 'NONE',  ( -8.750000000000000000, 6.249999999999999100, 0.0000000000000000000 ) ) ;
#35 = ADVANCED_FACE ( 'NONE', ( #44 ), #81, .F. ) ;
#36 = AXIS2_PLACEMENT_3D ( 'NONE', #97, #230, #116 ) ;
#37 = PERSON_AND_ORGANIZATION ( #183, #202 ) ;
#38 = VERTEX_POINT ( 'NONE', #117 ) ;
#39 = APPROVAL_PERSON_ORGANIZATION ( #217, #131, #215 ) ;
#40 = LINE ( 'NONE', #231, #78 ) ;
#41 = APPROVAL ( #13, 'UNSPECIFIED' ) ;
#42 = CLOSED_SHELL ( 'NONE', ( #216, #35, #52, #122, #12, #70 ) ) ;
#43 = PRODUCT_DEFINITION_FORMATION_WITH_SPECIFIED_SOURCE ( 'ANY', '', #145, .NOT_KNOWN. ) ;
#44 = FACE_OUTER_BOUND ( 'NONE', #203, .T. ) ;
#45 = PRODUCT_DEFINITION ( 'UNKNOWN', '', #43, #201 ) ;
#46 = CALENDAR_DATE ( 2017, 31, 1 ) ;
#47 = EDGE_CURVE ( 'NONE', #15, #64, #224, .T. ) ;
#48 = PRODUCT_DEFINITION_SHAPE ( 'NONE', 'NONE',  #45 ) ;
#49 = DIRECTION ( 'NONE',  ( -0.0000000000000000000, -0.0000000000000000000, -1.000000000000000000 ) ) ;
#50 = APPROVAL_PERSON_ORGANIZATION ( #19, #41, #56 ) ;
#51 = APPROVAL_ROLE ( '' ) ;
#52 = ADVANCED_FACE ( 'NONE', ( #173 ), #186, .F. ) ;
#53 = EDGE_CURVE ( 'NONE', #110, #15, #221, .T. ) ;
#54 = ORIENTED_EDGE ( 'NONE', *, *, #24, .T. ) ;
#55 = APPROVAL_STATUS ( 'not_yet_approved' ) ;
#56 = APPROVAL_ROLE ( '' ) ;
#57 = EDGE_CURVE ( 'NONE', #137, #93, #162, .T. ) ;
#58 = PERSON_AND_ORGANIZATION ( #183, #202 ) ;
#59 = ORIENTED_EDGE ( 'NONE', *, *, #53, .F. ) ;
#60 = LINE ( 'NONE', #34, #236 ) ;
#61 = DATE_AND_TIME ( #125, #136 ) ;
#62 = DIRECTION ( 'NONE',  ( -1.000000000000000000, -0.0000000000000000000, -0.0000000000000000000 ) ) ;
#63 = CARTESIAN_POINT ( 'NONE',  ( -8.750000000000000000, 6.249999999999999100, 3.000000000000000000 ) ) ;
#64 = VERTEX_POINT ( 'NONE', #88 ) ;
#65 = DIRECTION ( 'NONE',  ( 0.0000000000000000000, 1.000000000000000000, 0.0000000000000000000 ) ) ;
#66 = DATE_AND_TIME ( #46, #152 ) ;
#67 = EDGE_LOOP ( 'NONE', ( #192, #196, #107, #7 ) ) ;
#68 = DIRECTION ( 'NONE',  ( 0.0000000000000000000, 0.0000000000000000000, 1.000000000000000000 ) ) ;
#69 = CARTESIAN_POINT ( 'NONE',  ( -8.750000000000000000, -6.250000000000000900, 3.000000000000000000 ) ) ;
#70 = ADVANCED_FACE ( 'NONE', ( #1 ), #105, .F. ) ;
#71 = VECTOR ( 'NONE', #49, 1000.000000000000000 ) ;
#72 = ORIENTED_EDGE ( 'NONE', *, *, #87, .T. ) ;
#73 = DIRECTION ( 'NONE',  ( 1.000000000000000000, 0.0000000000000000000, 0.0000000000000000000 ) ) ;
#74 = LOCAL_TIME ( 14, 49, 3.000000000000000000, #119 ) ;
#75 = CALENDAR_DATE ( 2017, 31, 1 ) ;
#76 = EDGE_LOOP ( 'NONE', ( #23, #59, #11, #144 ) ) ;
#77 = COORDINATED_UNIVERSAL_TIME_OFFSET ( 5, 0, .BEHIND. ) ;
#78 = VECTOR ( 'NONE', #62, 1000.000000000000000 ) ;
#79 = PLANE ( 'NONE',  #164 ) ;
#80 = SECURITY_CLASSIFICATION ( '', '', #18 ) ;
#81 = PLANE ( 'NONE',  #33 ) ;
#82 = CALENDAR_DATE ( 2017, 31, 1 ) ;
#83 = DIRECTION ( 'NONE',  ( 0.0000000000000000000, -1.000000000000000000, 0.0000000000000000000 ) ) ;
#84 = PLANE ( 'NONE',  #94 ) ;
#85 = CARTESIAN_POINT ( 'NONE',  ( 8.750000000000014200, 6.249999999999999100, 3.000000000000000000 ) ) ;
#86 = DIRECTION ( 'NONE',  ( -1.110223024625156300E-015, -1.000000000000000000, 0.0000000000000000000 ) ) ;
#87 = EDGE_CURVE ( 'NONE', #93, #126, #143, .T. ) ;
#88 = CARTESIAN_POINT ( 'NONE',  ( 8.750000000000014200, 6.249999999999999100, 0.0000000000000000000 ) ) ;
#89 = VECTOR ( 'NONE', #235, 1000.000000000000000 ) ;
#90 = PERSON_AND_ORGANIZATION_ROLE ( 'creator' ) ;
#91 = LINE ( 'NONE', #130, #233 ) ;
#92 = COORDINATED_UNIVERSAL_TIME_OFFSET ( 5, 0, .BEHIND. ) ;
#93 = VERTEX_POINT ( 'NONE', #98 ) ;
#94 = AXIS2_PLACEMENT_3D ( 'NONE', #69, #65, #149 ) ;
#95 = FACE_OUTER_BOUND ( 'NONE', #229, .T. ) ;
#96 = LINE ( 'NONE', #101, #89 ) ;
#97 = CARTESIAN_POINT ( 'NONE',  ( -8.750000000000000000, 6.249999999999999100, 3.000000000000000000 ) ) ;
#98 = CARTESIAN_POINT ( 'NONE',  ( -8.750000000000000000, -6.250000000000000900, 3.000000000000000000 ) ) ;
#99 = ORIENTED_EDGE ( 'NONE', *, *, #87, .F. ) ;
#100 = DIRECTION ( 'NONE',  ( 0.0000000000000000000, -1.000000000000000000, 0.0000000000000000000 ) ) ;
#101 = CARTESIAN_POINT ( 'NONE',  ( -8.750000000000000000, 6.249999999999999100, 3.000000000000000000 ) ) ;
#102 = CARTESIAN_POINT ( 'NONE',  ( 8.750000000000014200, 6.249999999999999100, 3.000000000000000000 ) ) ;
#103 = CC_DESIGN_APPROVAL ( #131, ( #80 ) ) ;
#104 = PERSON_AND_ORGANIZATION ( #183, #202 ) ;
#105 = PLANE ( 'NONE',  #106 ) ;
#106 = AXIS2_PLACEMENT_3D ( 'NONE', #176, #9, #150 ) ;
#107 = ORIENTED_EDGE ( 'NONE', *, *, #57, .F. ) ;
#108 = APPLICATION_PROTOCOL_DEFINITION ( 'international standard', 'config_control_design', 1994, #198 ) ;
#109 = COORDINATED_UNIVERSAL_TIME_OFFSET ( 5, 0, .BEHIND. ) ;
#110 = VERTEX_POINT ( 'NONE', #134 ) ;
#111 = DATE_AND_TIME ( #82, #128 ) ;
#112 = ORIENTED_EDGE ( 'NONE', *, *, #118, .T. ) ;
#113 = PERSON_AND_ORGANIZATION ( #183, #202 ) ;
#114 = DIRECTION ( 'NONE',  ( 1.110223024625156500E-015, 1.000000000000000000, -0.0000000000000000000 ) ) ;
#115 = DIRECTION ( 'NONE',  ( -0.0000000000000000000, 0.0000000000000000000, 1.000000000000000000 ) ) ;
#116 = DIRECTION ( 'NONE',  ( -0.0000000000000000000, 0.0000000000000000000, -1.000000000000000000 ) ) ;
#117 = CARTESIAN_POINT ( 'NONE',  ( -8.750000000000000000, 6.249999999999999100, 0.0000000000000000000 ) ) ;
#118 = EDGE_CURVE ( 'NONE', #126, #129, #220, .T. ) ;
#119 = COORDINATED_UNIVERSAL_TIME_OFFSET ( 5, 0, .BEHIND. ) ;
#120 = DIRECTION ( 'NONE',  ( 1.110223024625156500E-015, 1.000000000000000000, -0.0000000000000000000 ) ) ;
#121 = LOCAL_TIME ( 14, 49, 3.000000000000000000, #92 ) ;
#122 = ADVANCED_FACE ( 'NONE', ( #156 ), #84, .F. ) ;
#123 = ORIENTED_EDGE ( 'NONE', *, *, #26, .T. ) ;
#124 = APPLICATION_CONTEXT ( 'configuration controlled 3d designs of mechanical parts and assemblies' ) ;
#125 = CALENDAR_DATE ( 2017, 31, 1 ) ;
#126 = VERTEX_POINT ( 'NONE', #188 ) ;
#127 = DIRECTION ( 'NONE',  ( 1.000000000000000000, 0.0000000000000000000, 0.0000000000000000000 ) ) ;
#128 = LOCAL_TIME ( 14, 49, 3.000000000000000000, #77 ) ;
#129 = VERTEX_POINT ( 'NONE', #154 ) ;
#130 = CARTESIAN_POINT ( 'NONE',  ( -8.750000000000000000, 6.249999999999999100, 0.0000000000000000000 ) ) ;
#131 = APPROVAL ( #55, 'UNSPECIFIED' ) ;
#132 = CARTESIAN_POINT ( 'NONE',  ( 0.0000000000000000000, 0.0000000000000000000, 0.0000000000000000000 ) ) ;
#133 = VECTOR ( 'NONE', #114, 1000.000000000000000 ) ;
#134 = CARTESIAN_POINT ( 'NONE',  ( -8.750000000000000000, -6.250000000000000900, 0.0000000000000000000 ) ) ;
#135 = EDGE_CURVE ( 'NONE', #137, #38, #96, .T. ) ;
#136 = LOCAL_TIME ( 14, 49, 3.000000000000000000, #109 ) ;
#137 = VERTEX_POINT ( 'NONE', #169 ) ;
#138 = UNCERTAINTY_MEASURE_WITH_UNIT (LENGTH_MEASURE( 1.000000000000000100E-005 ), #175, 'distance_accuracy_value', 'NONE');
#139 = DATE_TIME_ROLE ( 'creation_date' ) ;
#140 = PERSON_AND_ORGANIZATION_ROLE ( 'design_owner' ) ;
#141 = EDGE_LOOP ( 'NONE', ( #200, #20, #5, #54 ) ) ;
#142 = EDGE_CURVE ( 'NONE', #93, #110, #195, .T. ) ;
#143 = LINE ( 'NONE', #151, #4 ) ;
#144 = ORIENTED_EDGE ( 'NONE', *, *, #29, .F. ) ;
#145 = PRODUCT ( 'Web Model 68365', 'Web Model 68365', '', ( #155 ) ) ;
#146 = CARTESIAN_POINT ( 'NONE',  ( 8.750000000000000000, -6.250000000000000900, 3.000000000000000000 ) ) ;
#147 = VECTOR ( 'NONE', #83, 1000.000000000000000 ) ;
#148 = CC_DESIGN_PERSON_AND_ORGANIZATION_ASSIGNMENT ( #191, #90, ( #45 ) ) ;
#149 = DIRECTION ( 'NONE',  ( 0.0000000000000000000, -0.0000000000000000000, 1.000000000000000000 ) ) ;
#150 = DIRECTION ( 'NONE',  ( 1.000000000000000000, 0.0000000000000000000, 0.0000000000000000000 ) ) ;
#151 = CARTESIAN_POINT ( 'NONE',  ( -8.750000000000000000, -6.250000000000000900, 3.000000000000000000 ) ) ;
#152 = LOCAL_TIME ( 14, 49, 3.000000000000000000, #166 ) ;
#153 = DIRECTION ( 'NONE',  ( -1.000000000000000000, 1.110223024625156300E-015, 0.0000000000000000000 ) ) ;
#154 = CARTESIAN_POINT ( 'NONE',  ( 8.750000000000014200, 6.249999999999999100, 3.000000000000000000 ) ) ;
#155 = MECHANICAL_CONTEXT ( 'NONE', #124, 'mechanical' ) ;
#156 = FACE_OUTER_BOUND ( 'NONE', #161, .T. ) ;
#157 = EDGE_CURVE ( 'NONE', #38, #110, #60, .T. ) ;
#158 = CC_DESIGN_SECURITY_CLASSIFICATION ( #80, ( #43 ) ) ;
#159 = AXIS2_PLACEMENT_3D ( 'NONE', #102, #153, #86 ) ;
#160 = CALENDAR_DATE ( 2017, 31, 1 ) ;
#161 = EDGE_LOOP ( 'NONE', ( #2, #163, #99, #178 ) ) ;
#162 = LINE ( 'NONE', #63, #147 ) ;
#163 = ORIENTED_EDGE ( 'NONE', *, *, #24, .F. ) ;
#164 = AXIS2_PLACEMENT_3D ( 'NONE', #146, #115, #127 ) ;
#165 = VECTOR ( 'NONE', #171, 1000.000000000000000 ) ;
#166 = COORDINATED_UNIVERSAL_TIME_OFFSET ( 5, 0, .BEHIND. ) ;
#167 = APPROVAL_DATE_TIME ( #61, #210 ) ;
#168 = DIRECTION ( 'NONE',  ( 0.0000000000000000000, -1.000000000000000000, 0.0000000000000000000 ) ) ;
#169 = CARTESIAN_POINT ( 'NONE',  ( -8.750000000000000000, 6.249999999999999100, 3.000000000000000000 ) ) ;
#170 = PRODUCT_RELATED_PRODUCT_CATEGORY ( 'detail', '', ( #145 ) ) ;
#171 = DIRECTION ( 'NONE',  ( 1.000000000000000000, 0.0000000000000000000, 0.0000000000000000000 ) ) ;
#172 = FACE_OUTER_BOUND ( 'NONE', #141, .T. ) ;
#173 = FACE_OUTER_BOUND ( 'NONE', #67, .T. ) ;
#174 = CC_DESIGN_PERSON_AND_ORGANIZATION_ASSIGNMENT ( #104, #179, ( #43 ) ) ;
#175 =( LENGTH_UNIT ( ) NAMED_UNIT ( * ) SI_UNIT ( .MILLI., .METRE. ) );
#176 = CARTESIAN_POINT ( 'NONE',  ( 8.750000000000000000, -6.250000000000000900, 0.0000000000000000000 ) ) ;
#177 = DATE_AND_TIME ( #160, #74 ) ;
#178 = ORIENTED_EDGE ( 'NONE', *, *, #142, .T. ) ;
#179 = PERSON_AND_ORGANIZATION_ROLE ( 'creator' ) ;
#180 = APPROVAL_DATE_TIME ( #66, #131 ) ;
#181 = MANIFOLD_SOLID_BREP ( 'Extrude1', #42 ) ;
#182 = VECTOR ( 'NONE', #184, 1000.000000000000000 ) ;
#183 = PERSON ( 'UNSPECIFIED', 'UNSPECIFIED', 'UNSPECIFIED', ('UNSPECIFIED'), ('UNSPECIFIED'), ('UNSPECIFIED') ) ;
#184 = DIRECTION ( 'NONE',  ( -0.0000000000000000000, -0.0000000000000000000, -1.000000000000000000 ) ) ;
#185 = APPROVAL_PERSON_ORGANIZATION ( #113, #210, #51 ) ;
#186 = PLANE ( 'NONE',  #36 ) ;
#187 = CARTESIAN_POINT ( 'NONE',  ( 8.750000000000014200, 6.249999999999999100, 3.000000000000000000 ) ) ;
#188 = CARTESIAN_POINT ( 'NONE',  ( 8.750000000000000000, -6.250000000000000900, 3.000000000000000000 ) ) ;
#189 = EDGE_CURVE ( 'NONE', #129, #64, #10, .T. ) ;
#190 =( NAMED_UNIT ( * ) SI_UNIT ( $, .STERADIAN. ) SOLID_ANGLE_UNIT ( ) );
#191 = PERSON_AND_ORGANIZATION ( #183, #202 ) ;
#192 = ORIENTED_EDGE ( 'NONE', *, *, #157, .T. ) ;
#193 = PERSON_AND_ORGANIZATION_ROLE ( 'classification_officer' ) ;
#194 = DATE_TIME_ROLE ( 'classification_date' ) ;
#195 = LINE ( 'NONE', #232, #227 ) ;
#196 = ORIENTED_EDGE ( 'NONE', *, *, #142, .F. ) ;
#197 = CC_DESIGN_PERSON_AND_ORGANIZATION_ASSIGNMENT ( #37, #193, ( #80 ) ) ;
#198 = APPLICATION_CONTEXT ( 'configuration controlled 3d designs of mechanical parts and assemblies' ) ;
#199 = AXIS2_PLACEMENT_3D ( 'NONE', #132, #68, #73 ) ;
#200 = ORIENTED_EDGE ( 'NONE', *, *, #47, .T. ) ;
#201 = DESIGN_CONTEXT ( 'detailed design', #198, 'design' ) ;
#202 = ORGANIZATION ( 'UNSPECIFIED', 'UNSPECIFIED', '' ) ;
#203 = EDGE_LOOP ( 'NONE', ( #223, #208, #218, #30 ) ) ;
#204 = DIRECTION ( 'NONE',  ( -1.000000000000000000, -0.0000000000000000000, -0.0000000000000000000 ) ) ;
#205 =( GEOMETRIC_REPRESENTATION_CONTEXT ( 3 ) GLOBAL_UNCERTAINTY_ASSIGNED_CONTEXT ( ( #138 ) ) GLOBAL_UNIT_ASSIGNED_CONTEXT ( ( #175, #211, #190 ) ) REPRESENTATION_CONTEXT ( 'NONE', 'WORKASPACE' ) );
#206 = CARTESIAN_POINT ( 'NONE',  ( -8.750000000000000000, 6.249999999999999100, 3.000000000000000000 ) ) ;
#207 = SHAPE_DEFINITION_REPRESENTATION ( #48, #21 ) ;
#208 = ORIENTED_EDGE ( 'NONE', *, *, #135, .F. ) ;
#209 = CARTESIAN_POINT ( 'NONE',  ( -8.750000000000000000, -6.250000000000000900, 0.0000000000000000000 ) ) ;
#210 = APPROVAL ( #219, 'UNSPECIFIED' ) ;
#211 =( NAMED_UNIT ( * ) PLANE_ANGLE_UNIT ( ) SI_UNIT ( $, .RADIAN. ) );
#212 = PERSON_AND_ORGANIZATION ( #183, #202 ) ;
#213 = LINE ( 'NONE', #27, #182 ) ;
#214 = DIRECTION ( 'NONE',  ( 1.000000000000000000, 0.0000000000000000000, 0.0000000000000000000 ) ) ;
#215 = APPROVAL_ROLE ( '' ) ;
#216 = ADVANCED_FACE ( 'NONE', ( #172 ), #8, .F. ) ;
#217 = PERSON_AND_ORGANIZATION ( #183, #202 ) ;
#218 = ORIENTED_EDGE ( 'NONE', *, *, #26, .F. ) ;
#219 = APPROVAL_STATUS ( 'not_yet_approved' ) ;
#220 = LINE ( 'NONE', #187, #25 ) ;
#221 = LINE ( 'NONE', #209, #165 ) ;
#222 = APPROVAL_DATE_TIME ( #111, #41 ) ;
#223 = ORIENTED_EDGE ( 'NONE', *, *, #29, .T. ) ;
#224 = LINE ( 'NONE', #228, #133 ) ;
#225 = CC_DESIGN_PERSON_AND_ORGANIZATION_ASSIGNMENT ( #58, #14, ( #43 ) ) ;
#226 = CARTESIAN_POINT ( 'NONE',  ( 8.750000000000000000, -6.250000000000000900, 0.0000000000000000000 ) ) ;
#227 = VECTOR ( 'NONE', #32, 1000.000000000000000 ) ;
#228 = CARTESIAN_POINT ( 'NONE',  ( 8.750000000000014200, 6.249999999999999100, 0.0000000000000000000 ) ) ;
#229 = EDGE_LOOP ( 'NONE', ( #112, #123, #237, #72 ) ) ;
#230 = DIRECTION ( 'NONE',  ( 1.000000000000000000, 0.0000000000000000000, -0.0000000000000000000 ) ) ;
#231 = CARTESIAN_POINT ( 'NONE',  ( -8.750000000000000000, 6.249999999999999100, 3.000000000000000000 ) ) ;
#232 = CARTESIAN_POINT ( 'NONE',  ( -8.750000000000000000, -6.250000000000000900, 3.000000000000000000 ) ) ;
#233 = VECTOR ( 'NONE', #204, 1000.000000000000000 ) ;
#234 = CC_DESIGN_PERSON_AND_ORGANIZATION_ASSIGNMENT ( #212, #140, ( #145 ) ) ;
#235 = DIRECTION ( 'NONE',  ( -0.0000000000000000000, -0.0000000000000000000, -1.000000000000000000 ) ) ;
#236 = VECTOR ( 'NONE', #100, 1000.000000000000000 ) ;
#237 = ORIENTED_EDGE ( 'NONE', *, *, #57, .T. ) ;
ENDSEC;
END-ISO-10303-21;
