ISO-10303-21;
HEADER;
FILE_DESCRIPTION (( 'STEP AP203' ),
    '1' );
FILE_NAME ('Web Model 47189_47189.step',
    '2017-07-13T14:27:37',
    ( '' ),
    ( '' ),
    'SwSTEP 2.0',
    'SolidWorks 2016',
    '' );
FILE_SCHEMA (( 'CONFIG_CONTROL_DESIGN' ));
ENDSEC;

DATA;
#1 = DESIGN_CONTEXT ( 'detailed design', #52, 'design' ) ;
#2 = VECTOR ( 'NONE', #86, 1000.000000000000000 ) ;
#3 = DIRECTION ( 'NONE',  ( -0.7071067811865475700, 0.7071067811865474600, 0.0000000000000000000 ) ) ;
#4 = CARTESIAN_POINT ( 'NONE',  ( 30.00000000000000700, -10.00000000000000200, 10.00000000000000000 ) ) ;
#5 = PERSON_AND_ORGANIZATION ( #261, #154 ) ;
#6 = ORIENTED_EDGE ( 'NONE', *, *, #300, .F. ) ;
#7 = ADVANCED_FACE ( 'NONE', ( #22 ), #41, .F. ) ;
#8 = EDGE_CURVE ( 'NONE', #339, #325, #92, .T. ) ;
#9 = CALENDAR_DATE ( 2017, 13, 7 ) ;
#10 = CC_DESIGN_SECURITY_CLASSIFICATION ( #11, ( #268 ) ) ;
#11 = SECURITY_CLASSIFICATION ( '', '', #186 ) ;
#12 = ORIENTED_EDGE ( 'NONE', *, *, #66, .T. ) ;
#13 = CARTESIAN_POINT ( 'NONE',  ( 9.999999999999998200, 9.999999999999998200, -10.00000000000000000 ) ) ;
#14 = LINE ( 'NONE', #17, #153 ) ;
#15 = EDGE_CURVE ( 'NONE', #142, #127, #297, .T. ) ;
#16 = SHAPE_DEFINITION_REPRESENTATION ( #81, #78 ) ;
#17 = CARTESIAN_POINT ( 'NONE',  ( 10.00000000000000200, -10.00000000000000200, -10.00000000000000000 ) ) ;
#18 = APPROVAL_ROLE ( '' ) ;
#19 = DATE_AND_TIME ( #97, #163 ) ;
#20 = DIRECTION ( 'NONE',  ( 0.0000000000000000000, -0.0000000000000000000, 1.000000000000000000 ) ) ;
#21 = ORIENTED_EDGE ( 'NONE', *, *, #244, .T. ) ;
#22 = FACE_OUTER_BOUND ( 'NONE', #304, .T. ) ;
#23 = VECTOR ( 'NONE', #303, 1000.000000000000000 ) ;
#24 = MECHANICAL_CONTEXT ( 'NONE', #160, 'mechanical' ) ;
#25 = CARTESIAN_POINT ( 'NONE',  ( 10.00000000000000200, -10.00000000000000200, 10.00000000000000000 ) ) ;
#26 = PERSON_AND_ORGANIZATION_ROLE ( 'classification_officer' ) ;
#27 = PERSON_AND_ORGANIZATION ( #261, #154 ) ;
#28 = EDGE_CURVE ( 'NONE', #101, #127, #14, .T. ) ;
#29 = PRODUCT_RELATED_PRODUCT_CATEGORY ( 'detail', '', ( #232 ) ) ;
#30 = CC_DESIGN_PERSON_AND_ORGANIZATION_ASSIGNMENT ( #301, #26, ( #11 ) ) ;
#31 = ORIENTED_EDGE ( 'NONE', *, *, #215, .F. ) ;
#32 = EDGE_LOOP ( 'NONE', ( #189, #284, #223, #253 ) ) ;
#33 = LINE ( 'NONE', #79, #275 ) ;
#34 = PLANE ( 'NONE',  #181 ) ;
#35 = ADVANCED_FACE ( 'NONE', ( #158 ), #205, .F. ) ;
#36 = LOCAL_TIME ( 10, 27, 37.00000000000000000, #55 ) ;
#37 = EDGE_LOOP ( 'NONE', ( #314, #262, #74, #247 ) ) ;
#38 = CARTESIAN_POINT ( 'NONE',  ( 0.0000000000000000000, 0.0000000000000000000, 0.0000000000000000000 ) ) ;
#39 = DIRECTION ( 'NONE',  ( -0.0000000000000000000, -0.0000000000000000000, -1.000000000000000000 ) ) ;
#40 = DIRECTION ( 'NONE',  ( -0.0000000000000000000, -0.0000000000000000000, -1.000000000000000000 ) ) ;
#41 = PLANE ( 'NONE',  #172 ) ;
#42 = CLOSED_SHELL ( 'NONE', ( #116, #243, #167, #195, #146, #299 ) ) ;
#43 = VECTOR ( 'NONE', #100, 1000.000000000000000 ) ;
#44 = EDGE_CURVE ( 'NONE', #99, #83, #281, .T. ) ;
#45 = CC_DESIGN_DATE_AND_TIME_ASSIGNMENT ( #19, #338, ( #11 ) ) ;
#46 = VECTOR ( 'NONE', #276, 1000.000000000000000 ) ;
#47 = DIRECTION ( 'NONE',  ( 0.0000000000000000000, 1.000000000000000000, 0.0000000000000000000 ) ) ;
#48 = ORIENTED_EDGE ( 'NONE', *, *, #341, .F. ) ;
#49 = ORIENTED_EDGE ( 'NONE', *, *, #15, .F. ) ;
#50 = VECTOR ( 'NONE', #39, 1000.000000000000000 ) ;
#51 = ORIENTED_EDGE ( 'NONE', *, *, #28, .T. ) ;
#52 = APPLICATION_CONTEXT ( 'configuration controlled 3d designs of mechanical parts and assemblies' ) ;
#53 = DIRECTION ( 'NONE',  ( 0.7071067811865475700, -0.7071067811865474600, 0.0000000000000000000 ) ) ;
#54 = CARTESIAN_POINT ( 'NONE',  ( 10.00000000000000200, -10.00000000000000200, -10.00000000000000000 ) ) ;
#55 = COORDINATED_UNIVERSAL_TIME_OFFSET ( 5, 0, .BEHIND. ) ;
#56 = CARTESIAN_POINT ( 'NONE',  ( 10.00000000000000200, -10.00000000000000200, -10.00000000000000000 ) ) ;
#57 = VECTOR ( 'NONE', #135, 1000.000000000000000 ) ;
#58 = ORIENTED_EDGE ( 'NONE', *, *, #87, .F. ) ;
#59 = LINE ( 'NONE', #88, #50 ) ;
#60 = ORIENTED_EDGE ( 'NONE', *, *, #122, .T. ) ;
#61 = CARTESIAN_POINT ( 'NONE',  ( -10.00000000000000200, 9.999999999999998200, -10.00000000000000000 ) ) ;
#62 = DIRECTION ( 'NONE',  ( 0.7071067811865476800, -0.7071067811865474600, 0.0000000000000000000 ) ) ;
#63 = ADVANCED_FACE ( 'NONE', ( #211 ), #216, .T. ) ;
#64 = ORIENTED_EDGE ( 'NONE', *, *, #320, .T. ) ;
#65 = LOCAL_TIME ( 10, 27, 37.00000000000000000, #136 ) ;
#66 = EDGE_CURVE ( 'NONE', #209, #83, #143, .T. ) ;
#67 = DIRECTION ( 'NONE',  ( 0.7071067811865475700, -0.7071067811865474600, 0.0000000000000000000 ) ) ;
#68 = FACE_OUTER_BOUND ( 'NONE', #173, .T. ) ;
#69 = DIRECTION ( 'NONE',  ( 0.7071067811865475700, -0.7071067811865474600, 0.0000000000000000000 ) ) ;
#70 = PLANE ( 'NONE',  #282 ) ;
#71 = EDGE_CURVE ( 'NONE', #83, #121, #80, .T. ) ;
#72 = CARTESIAN_POINT ( 'NONE',  ( -9.999999999999998200, -10.00000000000000200, 10.00000000000000000 ) ) ;
#73 = CARTESIAN_POINT ( 'NONE',  ( -10.00000000000000200, 9.999999999999998200, 10.00000000000000000 ) ) ;
#74 = ORIENTED_EDGE ( 'NONE', *, *, #266, .F. ) ;
#75 = FACE_OUTER_BOUND ( 'NONE', #32, .T. ) ;
#76 = ORIENTED_EDGE ( 'NONE', *, *, #8, .T. ) ;
#77 = CALENDAR_DATE ( 2017, 13, 7 ) ;
#78 = ADVANCED_BREP_SHAPE_REPRESENTATION ( 'Web Model 47189_47189', ( #254, #197, #147 ), #309 ) ;
#79 = CARTESIAN_POINT ( 'NONE',  ( -9.999999999999998200, -10.00000000000000200, -10.00000000000000000 ) ) ;
#80 = LINE ( 'NONE', #321, #131 ) ;
#81 = PRODUCT_DEFINITION_SHAPE ( 'NONE', 'NONE',  #177 ) ;
#82 = PERSON_AND_ORGANIZATION ( #261, #154 ) ;
#83 = VERTEX_POINT ( 'NONE', #237 ) ;
#84 = APPROVAL_STATUS ( 'not_yet_approved' ) ;
#85 = CARTESIAN_POINT ( 'NONE',  ( 10.00000000000000200, -10.00000000000000200, 10.00000000000000000 ) ) ;
#86 = DIRECTION ( 'NONE',  ( -0.0000000000000000000, -0.0000000000000000000, -1.000000000000000000 ) ) ;
#87 = EDGE_CURVE ( 'NONE', #239, #209, #259, .T. ) ;
#88 = CARTESIAN_POINT ( 'NONE',  ( 9.999999999999998200, 9.999999999999998200, 10.00000000000000000 ) ) ;
#89 = LOCAL_TIME ( 10, 27, 37.00000000000000000, #155 ) ;
#90 = ORIENTED_EDGE ( 'NONE', *, *, #215, .T. ) ;
#91 = EDGE_CURVE ( 'NONE', #132, #121, #59, .T. ) ;
#92 = LINE ( 'NONE', #336, #224 ) ;
#93 = VECTOR ( 'NONE', #67, 1000.000000000000000 ) ;
#94 = DIRECTION ( 'NONE',  ( -0.7071067811865474600, -0.7071067811865476800, 0.0000000000000000000 ) ) ;
#95 = ADVANCED_FACE ( 'NONE', ( #126 ), #70, .F. ) ;
#96 = PLANE ( 'NONE',  #218 ) ;
#97 = CALENDAR_DATE ( 2017, 13, 7 ) ;
#98 = CARTESIAN_POINT ( 'NONE',  ( -9.999999999999998200, -10.00000000000000200, 10.00000000000000000 ) ) ;
#99 = VERTEX_POINT ( 'NONE', #56 ) ;
#100 = DIRECTION ( 'NONE',  ( 1.000000000000000000, 0.0000000000000000000, 0.0000000000000000000 ) ) ;
#101 = VERTEX_POINT ( 'NONE', #151 ) ;
#102 = PLANE ( 'NONE',  #315 ) ;
#103 = PERSON_AND_ORGANIZATION ( #261, #154 ) ;
#104 = EDGE_CURVE ( 'NONE', #325, #121, #252, .T. ) ;
#105 = ORIENTED_EDGE ( 'NONE', *, *, #71, .F. ) ;
#106 = EDGE_CURVE ( 'NONE', #348, #101, #335, .T. ) ;
#107 = ORIENTED_EDGE ( 'NONE', *, *, #307, .F. ) ;
#108 = VECTOR ( 'NONE', #241, 1000.000000000000000 ) ;
#109 = PERSON_AND_ORGANIZATION_ROLE ( 'creator' ) ;
#110 = CARTESIAN_POINT ( 'NONE',  ( -10.00000000000000200, 9.999999999999998200, 10.00000000000000000 ) ) ;
#111 = DIRECTION ( 'NONE',  ( 0.0000000000000000000, 0.0000000000000000000, -1.000000000000000000 ) ) ;
#112 = VERTEX_POINT ( 'NONE', #72 ) ;
#113 = APPROVAL_DATE_TIME ( #286, #322 ) ;
#114 = EDGE_LOOP ( 'NONE', ( #51, #49, #31, #201 ) ) ;
#115 = VECTOR ( 'NONE', #40, 1000.000000000000000 ) ;
#116 = ADVANCED_FACE ( 'NONE', ( #242 ), #102, .F. ) ;
#117 = CARTESIAN_POINT ( 'NONE',  ( -10.00000000000000200, 9.999999999999998200, -10.00000000000000000 ) ) ;
#118 = VECTOR ( 'NONE', #234, 1000.000000000000000 ) ;
#119 =( LENGTH_UNIT ( ) NAMED_UNIT ( * ) SI_UNIT ( .MILLI., .METRE. ) );
#120 = DIRECTION ( 'NONE',  ( -1.734723475976807100E-016, 1.000000000000000000, 0.0000000000000000000 ) ) ;
#121 = VERTEX_POINT ( 'NONE', #13 ) ;
#122 = EDGE_CURVE ( 'NONE', #209, #132, #316, .T. ) ;
#123 = DIRECTION ( 'NONE',  ( 0.7071067811865474600, 0.7071067811865475700, -0.0000000000000000000 ) ) ;
#124 = DIRECTION ( 'NONE',  ( -1.000000000000000000, 0.0000000000000000000, -0.0000000000000000000 ) ) ;
#125 = ORIENTED_EDGE ( 'NONE', *, *, #341, .T. ) ;
#126 = FACE_OUTER_BOUND ( 'NONE', #37, .T. ) ;
#127 = VERTEX_POINT ( 'NONE', #61 ) ;
#128 = APPROVAL_PERSON_ORGANIZATION ( #198, #287, #318 ) ;
#129 = FACE_OUTER_BOUND ( 'NONE', #114, .T. ) ;
#130 = DIRECTION ( 'NONE',  ( -0.7071067811865475700, 0.7071067811865474600, 0.0000000000000000000 ) ) ;
#131 = VECTOR ( 'NONE', #187, 1000.000000000000000 ) ;
#132 = VERTEX_POINT ( 'NONE', #271 ) ;
#133 = APPLICATION_PROTOCOL_DEFINITION ( 'international standard', 'config_control_design', 1994, #160 ) ;
#134 = ORIENTED_EDGE ( 'NONE', *, *, #122, .F. ) ;
#135 = DIRECTION ( 'NONE',  ( -0.0000000000000000000, -0.0000000000000000000, -1.000000000000000000 ) ) ;
#136 = COORDINATED_UNIVERSAL_TIME_OFFSET ( 5, 0, .BEHIND. ) ;
#137 = UNCERTAINTY_MEASURE_WITH_UNIT (LENGTH_MEASURE( 1.000000000000000100E-005 ), #119, 'distance_accuracy_value', 'NONE');
#138 = APPROVAL_STATUS ( 'not_yet_approved' ) ;
#139 = PLANE ( 'NONE',  #326 ) ;
#140 = CARTESIAN_POINT ( 'NONE',  ( 30.00000000000000700, -10.00000000000000200, 10.00000000000000000 ) ) ;
#141 = LINE ( 'NONE', #288, #206 ) ;
#142 = VERTEX_POINT ( 'NONE', #193 ) ;
#143 = LINE ( 'NONE', #140, #2 ) ;
#144 = CARTESIAN_POINT ( 'NONE',  ( 0.0000000000000000000, 0.0000000000000000000, 10.00000000000000000 ) ) ;
#145 = LOCAL_TIME ( 10, 27, 37.00000000000000000, #212 ) ;
#146 = ADVANCED_FACE ( 'NONE', ( #175 ), #298, .T. ) ;
#147 = AXIS2_PLACEMENT_3D ( 'NONE', #38, #349, #184 ) ;
#148 = CARTESIAN_POINT ( 'NONE',  ( -10.00000000000000200, 9.999999999999998200, -10.00000000000000000 ) ) ;
#149 = CARTESIAN_POINT ( 'NONE',  ( -9.999999999999998200, -10.00000000000000200, 10.00000000000000000 ) ) ;
#150 =( NAMED_UNIT ( * ) SI_UNIT ( $, .STERADIAN. ) SOLID_ANGLE_UNIT ( ) );
#151 = CARTESIAN_POINT ( 'NONE',  ( 10.00000000000000200, -10.00000000000000200, -10.00000000000000000 ) ) ;
#152 = AXIS2_PLACEMENT_3D ( 'NONE', #144, #330, #166 ) ;
#153 = VECTOR ( 'NONE', #171, 1000.000000000000000 ) ;
#154 = ORGANIZATION ( 'UNSPECIFIED', 'UNSPECIFIED', '' ) ;
#155 = COORDINATED_UNIVERSAL_TIME_OFFSET ( 5, 0, .BEHIND. ) ;
#156 = CARTESIAN_POINT ( 'NONE',  ( 10.00000000000000200, -10.00000000000000200, 10.00000000000000000 ) ) ;
#157 = ORIENTED_EDGE ( 'NONE', *, *, #44, .T. ) ;
#158 = FACE_OUTER_BOUND ( 'NONE', #329, .T. ) ;
#159 = LINE ( 'NONE', #117, #93 ) ;
#160 = APPLICATION_CONTEXT ( 'configuration controlled 3d designs of mechanical parts and assemblies' ) ;
#161 = PERSON_AND_ORGANIZATION_ROLE ( 'creator' ) ;
#162 = DIRECTION ( 'NONE',  ( -0.0000000000000000000, 0.0000000000000000000, 1.000000000000000000 ) ) ;
#163 = LOCAL_TIME ( 10, 27, 37.00000000000000000, #226 ) ;
#164 = CC_DESIGN_PERSON_AND_ORGANIZATION_ASSIGNMENT ( #82, #213, ( #232 ) ) ;
#165 = ORIENTED_EDGE ( 'NONE', *, *, #285, .T. ) ;
#166 = DIRECTION ( 'NONE',  ( 1.000000000000000000, 0.0000000000000000000, 0.0000000000000000000 ) ) ;
#167 = ADVANCED_FACE ( 'NONE', ( #328 ), #34, .F. ) ;
#168 = APPROVAL_DATE_TIME ( #236, #287 ) ;
#169 = CARTESIAN_POINT ( 'NONE',  ( -10.00000000000000200, 9.999999999999998200, 10.00000000000000000 ) ) ;
#170 = ORIENTED_EDGE ( 'NONE', *, *, #225, .F. ) ;
#171 = DIRECTION ( 'NONE',  ( -0.7071067811865475700, 0.7071067811865474600, 0.0000000000000000000 ) ) ;
#172 = AXIS2_PLACEMENT_3D ( 'NONE', #249, #308, #124 ) ;
#173 = EDGE_LOOP ( 'NONE', ( #157, #183, #58, #165 ) ) ;
#174 = DIRECTION ( 'NONE',  ( -0.0000000000000000000, -0.0000000000000000000, -1.000000000000000000 ) ) ;
#175 = FACE_OUTER_BOUND ( 'NONE', #190, .T. ) ;
#176 = APPROVAL_STATUS ( 'not_yet_approved' ) ;
#177 = PRODUCT_DEFINITION ( 'UNKNOWN', '', #268, #1 ) ;
#178 = DIRECTION ( 'NONE',  ( 0.0000000000000000000, 1.000000000000000000, 0.0000000000000000000 ) ) ;
#179 = CARTESIAN_POINT ( 'NONE',  ( 10.00000000000000200, -10.00000000000000200, 10.00000000000000000 ) ) ;
#180 = LINE ( 'NONE', #110, #23 ) ;
#181 = AXIS2_PLACEMENT_3D ( 'NONE', #4, #94, #62 ) ;
#182 = ORIENTED_EDGE ( 'NONE', *, *, #91, .F. ) ;
#183 = ORIENTED_EDGE ( 'NONE', *, *, #66, .F. ) ;
#184 = DIRECTION ( 'NONE',  ( 1.000000000000000000, 0.0000000000000000000, 0.0000000000000000000 ) ) ;
#185 = PLANE ( 'NONE',  #290 ) ;
#186 = SECURITY_CLASSIFICATION_LEVEL ( 'unclassified' ) ;
#187 = DIRECTION ( 'NONE',  ( -0.7071067811865476800, 0.7071067811865474600, 0.0000000000000000000 ) ) ;
#188 = VECTOR ( 'NONE', #317, 1000.000000000000000 ) ;
#189 = ORIENTED_EDGE ( 'NONE', *, *, #104, .F. ) ;
#190 = EDGE_LOOP ( 'NONE', ( #125, #229, #60, #107 ) ) ;
#191 = VECTOR ( 'NONE', #255, 1000.000000000000000 ) ;
#192 = ORIENTED_EDGE ( 'NONE', *, *, #71, .T. ) ;
#193 = CARTESIAN_POINT ( 'NONE',  ( -10.00000000000000200, 9.999999999999998200, 10.00000000000000000 ) ) ;
#194 = CARTESIAN_POINT ( 'NONE',  ( 30.00000000000000700, -10.00000000000000200, 10.00000000000000000 ) ) ;
#195 = ADVANCED_FACE ( 'NONE', ( #75 ), #96, .T. ) ;
#196 = EDGE_CURVE ( 'NONE', #296, #101, #33, .T. ) ;
#197 = MANIFOLD_SOLID_BREP ( 'Boss-Extrude2', #42 ) ;
#198 = PERSON_AND_ORGANIZATION ( #261, #154 ) ;
#199 = APPROVAL ( #84, 'UNSPECIFIED' ) ;
#200 = LINE ( 'NONE', #207, #188 ) ;
#201 = ORIENTED_EDGE ( 'NONE', *, *, #106, .T. ) ;
#202 = DIRECTION ( 'NONE',  ( 0.0000000000000000000, 1.000000000000000000, 0.0000000000000000000 ) ) ;
#203 = EDGE_LOOP ( 'NONE', ( #192, #182, #134, #12 ) ) ;
#204 = PERSON_AND_ORGANIZATION ( #261, #154 ) ;
#205 = PLANE ( 'NONE',  #210 ) ;
#206 = VECTOR ( 'NONE', #313, 1000.000000000000000 ) ;
#207 = CARTESIAN_POINT ( 'NONE',  ( -10.00000000000000200, 9.999999999999998200, 10.00000000000000000 ) ) ;
#208 = PLANE ( 'NONE',  #250 ) ;
#209 = VERTEX_POINT ( 'NONE', #194 ) ;
#210 = AXIS2_PLACEMENT_3D ( 'NONE', #149, #202, #351 ) ;
#211 = FACE_OUTER_BOUND ( 'NONE', #258, .T. ) ;
#212 = COORDINATED_UNIVERSAL_TIME_OFFSET ( 5, 0, .BEHIND. ) ;
#213 = PERSON_AND_ORGANIZATION_ROLE ( 'design_owner' ) ;
#214 = DIRECTION ( 'NONE',  ( -0.7071067811865474600, -0.7071067811865475700, 0.0000000000000000000 ) ) ;
#215 = EDGE_CURVE ( 'NONE', #348, #142, #344, .T. ) ;
#216 = PLANE ( 'NONE',  #240 ) ;
#217 = CC_DESIGN_APPROVAL ( #199, ( #177 ) ) ;
#218 = AXIS2_PLACEMENT_3D ( 'NONE', #343, #178, #20 ) ;
#219 = VECTOR ( 'NONE', #235, 1000.000000000000000 ) ;
#220 = VECTOR ( 'NONE', #69, 1000.000000000000000 ) ;
#221 = APPROVAL_PERSON_ORGANIZATION ( #295, #322, #18 ) ;
#222 = CARTESIAN_POINT ( 'NONE',  ( 10.00000000000000200, -10.00000000000000200, 10.00000000000000000 ) ) ;
#223 = ORIENTED_EDGE ( 'NONE', *, *, #307, .T. ) ;
#224 = VECTOR ( 'NONE', #174, 1000.000000000000000 ) ;
#225 = EDGE_CURVE ( 'NONE', #127, #296, #141, .T. ) ;
#226 = COORDINATED_UNIVERSAL_TIME_OFFSET ( 5, 0, .BEHIND. ) ;
#227 = CC_DESIGN_PERSON_AND_ORGANIZATION_ASSIGNMENT ( #204, #109, ( #177 ) ) ;
#228 = CARTESIAN_POINT ( 'NONE',  ( 10.00000000000000200, -10.00000000000000200, 10.00000000000000000 ) ) ;
#229 = ORIENTED_EDGE ( 'NONE', *, *, #87, .T. ) ;
#230 = DIRECTION ( 'NONE',  ( 0.0000000000000000000, -0.0000000000000000000, 1.000000000000000000 ) ) ;
#231 = ORIENTED_EDGE ( 'NONE', *, *, #196, .F. ) ;
#232 = PRODUCT ( 'Web Model 47189_47189', 'Web Model 47189_47189', '', ( #24 ) ) ;
#233 = APPLICATION_PROTOCOL_DEFINITION ( 'international standard', 'config_control_design', 1994, #52 ) ;
#234 = DIRECTION ( 'NONE',  ( -0.0000000000000000000, -0.0000000000000000000, -1.000000000000000000 ) ) ;
#235 = DIRECTION ( 'NONE',  ( 1.000000000000000000, 0.0000000000000000000, 0.0000000000000000000 ) ) ;
#236 = DATE_AND_TIME ( #311, #36 ) ;
#237 = CARTESIAN_POINT ( 'NONE',  ( 30.00000000000000700, -10.00000000000000200, -10.00000000000000000 ) ) ;
#238 = ORIENTED_EDGE ( 'NONE', *, *, #196, .T. ) ;
#239 = VERTEX_POINT ( 'NONE', #179 ) ;
#240 = AXIS2_PLACEMENT_3D ( 'NONE', #267, #111, #294 ) ;
#241 = DIRECTION ( 'NONE',  ( -0.7071067811865476800, 0.7071067811865474600, 0.0000000000000000000 ) ) ;
#242 = FACE_OUTER_BOUND ( 'NONE', #260, .T. ) ;
#243 = ADVANCED_FACE ( 'NONE', ( #68 ), #208, .F. ) ;
#244 = EDGE_CURVE ( 'NONE', #112, #296, #332, .T. ) ;
#245 = CC_DESIGN_DATE_AND_TIME_ASSIGNMENT ( #264, #293, ( #177 ) ) ;
#246 = CARTESIAN_POINT ( 'NONE',  ( -10.00000000000000200, 9.999999999999998200, 10.00000000000000000 ) ) ;
#247 = ORIENTED_EDGE ( 'NONE', *, *, #15, .T. ) ;
#248 = CARTESIAN_POINT ( 'NONE',  ( -10.00000000000000200, 9.999999999999998200, 10.00000000000000000 ) ) ;
#249 = CARTESIAN_POINT ( 'NONE',  ( 0.0000000000000000000, 0.0000000000000000000, 10.00000000000000000 ) ) ;
#250 = AXIS2_PLACEMENT_3D ( 'NONE', #156, #47, #230 ) ;
#251 = ORIENTED_EDGE ( 'NONE', *, *, #44, .F. ) ;
#252 = LINE ( 'NONE', #306, #43 ) ;
#253 = ORIENTED_EDGE ( 'NONE', *, *, #91, .T. ) ;
#254 = MANIFOLD_SOLID_BREP ( 'Boss-Extrude1', #327 ) ;
#255 = DIRECTION ( 'NONE',  ( 1.000000000000000000, 0.0000000000000000000, 0.0000000000000000000 ) ) ;
#256 = DIRECTION ( 'NONE',  ( 1.000000000000000000, 0.0000000000000000000, 0.0000000000000000000 ) ) ;
#257 = LINE ( 'NONE', #85, #118 ) ;
#258 = EDGE_LOOP ( 'NONE', ( #231, #170, #270 ) ) ;
#259 = LINE ( 'NONE', #354, #191 ) ;
#260 = EDGE_LOOP ( 'NONE', ( #64, #278, #48, #76 ) ) ;
#261 = PERSON ( 'UNSPECIFIED', 'UNSPECIFIED', 'UNSPECIFIED', ('UNSPECIFIED'), ('UNSPECIFIED'), ('UNSPECIFIED') ) ;
#262 = ORIENTED_EDGE ( 'NONE', *, *, #244, .F. ) ;
#263 = APPROVAL_ROLE ( '' ) ;
#264 = DATE_AND_TIME ( #340, #65 ) ;
#265 = CARTESIAN_POINT ( 'NONE',  ( -9.999999999999998200, -10.00000000000000200, -10.00000000000000000 ) ) ;
#266 = EDGE_CURVE ( 'NONE', #142, #112, #200, .T. ) ;
#267 = CARTESIAN_POINT ( 'NONE',  ( 0.0000000000000000000, 0.0000000000000000000, -10.00000000000000000 ) ) ;
#268 = PRODUCT_DEFINITION_FORMATION_WITH_SPECIFIED_SOURCE ( 'ANY', '', #232, .NOT_KNOWN. ) ;
#269 = VECTOR ( 'NONE', #130, 1000.000000000000000 ) ;
#270 = ORIENTED_EDGE ( 'NONE', *, *, #28, .F. ) ;
#271 = CARTESIAN_POINT ( 'NONE',  ( 9.999999999999998200, 9.999999999999998200, 10.00000000000000000 ) ) ;
#272 = ORIENTED_EDGE ( 'NONE', *, *, #300, .T. ) ;
#273 = ADVANCED_FACE ( 'NONE', ( #129 ), #185, .F. ) ;
#274 = APPROVAL_DATE_TIME ( #350, #199 ) ;
#275 = VECTOR ( 'NONE', #256, 1000.000000000000000 ) ;
#276 = DIRECTION ( 'NONE',  ( 1.000000000000000000, 0.0000000000000000000, 0.0000000000000000000 ) ) ;
#277 = DIRECTION ( 'NONE',  ( 1.000000000000000000, 1.734723475976807100E-016, -0.0000000000000000000 ) ) ;
#278 = ORIENTED_EDGE ( 'NONE', *, *, #285, .F. ) ;
#279 = CARTESIAN_POINT ( 'NONE',  ( 30.00000000000000700, -10.00000000000000200, 10.00000000000000000 ) ) ;
#280 = DIRECTION ( 'NONE',  ( -0.0000000000000000000, -0.0000000000000000000, -1.000000000000000000 ) ) ;
#281 = LINE ( 'NONE', #54, #219 ) ;
#282 = AXIS2_PLACEMENT_3D ( 'NONE', #246, #277, #120 ) ;
#283 = APPROVAL_PERSON_ORGANIZATION ( #5, #199, #263 ) ;
#284 = ORIENTED_EDGE ( 'NONE', *, *, #8, .F. ) ;
#285 = EDGE_CURVE ( 'NONE', #239, #99, #257, .T. ) ;
#286 = DATE_AND_TIME ( #9, #89 ) ;
#287 = APPROVAL ( #138, 'UNSPECIFIED' ) ;
#288 = CARTESIAN_POINT ( 'NONE',  ( -10.00000000000000200, 9.999999999999998200, -10.00000000000000000 ) ) ;
#289 = VECTOR ( 'NONE', #280, 1000.000000000000000 ) ;
#290 = AXIS2_PLACEMENT_3D ( 'NONE', #25, #214, #53 ) ;
#291 = LINE ( 'NONE', #331, #220 ) ;
#292 = CARTESIAN_POINT ( 'NONE',  ( -9.999999999999998200, -10.00000000000000200, 10.00000000000000000 ) ) ;
#293 = DATE_TIME_ROLE ( 'creation_date' ) ;
#294 = DIRECTION ( 'NONE',  ( -1.000000000000000000, 0.0000000000000000000, -0.0000000000000000000 ) ) ;
#295 = PERSON_AND_ORGANIZATION ( #261, #154 ) ;
#296 = VERTEX_POINT ( 'NONE', #265 ) ;
#297 = LINE ( 'NONE', #73, #289 ) ;
#298 = PLANE ( 'NONE',  #152 ) ;
#299 = ADVANCED_FACE ( 'NONE', ( #324 ), #139, .F. ) ;
#300 = EDGE_CURVE ( 'NONE', #112, #348, #347, .T. ) ;
#301 = PERSON_AND_ORGANIZATION ( #261, #154 ) ;
#302 = CC_DESIGN_APPROVAL ( #287, ( #268 ) ) ;
#303 = DIRECTION ( 'NONE',  ( 1.000000000000000000, 0.0000000000000000000, 0.0000000000000000000 ) ) ;
#304 = EDGE_LOOP ( 'NONE', ( #272, #90, #333 ) ) ;
#305 =( NAMED_UNIT ( * ) PLANE_ANGLE_UNIT ( ) SI_UNIT ( $, .RADIAN. ) );
#306 = CARTESIAN_POINT ( 'NONE',  ( -10.00000000000000200, 9.999999999999998200, -10.00000000000000000 ) ) ;
#307 = EDGE_CURVE ( 'NONE', #339, #132, #180, .T. ) ;
#308 = DIRECTION ( 'NONE',  ( 0.0000000000000000000, 0.0000000000000000000, -1.000000000000000000 ) ) ;
#309 =( GEOMETRIC_REPRESENTATION_CONTEXT ( 3 ) GLOBAL_UNCERTAINTY_ASSIGNED_CONTEXT ( ( #137 ) ) GLOBAL_UNIT_ASSIGNED_CONTEXT ( ( #119, #305, #150 ) ) REPRESENTATION_CONTEXT ( 'NONE', 'WORKASPACE' ) );
#310 = ORIENTED_EDGE ( 'NONE', *, *, #106, .F. ) ;
#311 = CALENDAR_DATE ( 2017, 13, 7 ) ;
#312 = ORIENTED_EDGE ( 'NONE', *, *, #320, .F. ) ;
#313 = DIRECTION ( 'NONE',  ( 1.734723475976807100E-016, -1.000000000000000000, 0.0000000000000000000 ) ) ;
#314 = ORIENTED_EDGE ( 'NONE', *, *, #225, .T. ) ;
#315 = AXIS2_PLACEMENT_3D ( 'NONE', #248, #123, #3 ) ;
#316 = LINE ( 'NONE', #279, #108 ) ;
#317 = DIRECTION ( 'NONE',  ( 1.734723475976807100E-016, -1.000000000000000000, 0.0000000000000000000 ) ) ;
#318 = APPROVAL_ROLE ( '' ) ;
#319 = CARTESIAN_POINT ( 'NONE',  ( 0.0000000000000000000, 0.0000000000000000000, -10.00000000000000000 ) ) ;
#320 = EDGE_CURVE ( 'NONE', #325, #99, #159, .T. ) ;
#321 = CARTESIAN_POINT ( 'NONE',  ( 30.00000000000000700, -10.00000000000000200, -10.00000000000000000 ) ) ;
#322 = APPROVAL ( #176, 'UNSPECIFIED' ) ;
#323 = CC_DESIGN_PERSON_AND_ORGANIZATION_ASSIGNMENT ( #103, #161, ( #268 ) ) ;
#324 = FACE_OUTER_BOUND ( 'NONE', #337, .T. ) ;
#325 = VERTEX_POINT ( 'NONE', #148 ) ;
#326 = AXIS2_PLACEMENT_3D ( 'NONE', #319, #162, #353 ) ;
#327 = CLOSED_SHELL ( 'NONE', ( #35, #273, #95, #7, #63 ) ) ;
#328 = FACE_OUTER_BOUND ( 'NONE', #203, .T. ) ;
#329 = EDGE_LOOP ( 'NONE', ( #238, #310, #6, #21 ) ) ;
#330 = DIRECTION ( 'NONE',  ( -0.0000000000000000000, 0.0000000000000000000, 1.000000000000000000 ) ) ;
#331 = CARTESIAN_POINT ( 'NONE',  ( -10.00000000000000200, 9.999999999999998200, 10.00000000000000000 ) ) ;
#332 = LINE ( 'NONE', #292, #57 ) ;
#333 = ORIENTED_EDGE ( 'NONE', *, *, #266, .T. ) ;
#334 = CARTESIAN_POINT ( 'NONE',  ( 10.00000000000000200, -10.00000000000000200, 10.00000000000000000 ) ) ;
#335 = LINE ( 'NONE', #334, #115 ) ;
#336 = CARTESIAN_POINT ( 'NONE',  ( -10.00000000000000200, 9.999999999999998200, 10.00000000000000000 ) ) ;
#337 = EDGE_LOOP ( 'NONE', ( #312, #346, #105, #251 ) ) ;
#338 = DATE_TIME_ROLE ( 'classification_date' ) ;
#339 = VERTEX_POINT ( 'NONE', #169 ) ;
#340 = CALENDAR_DATE ( 2017, 13, 7 ) ;
#341 = EDGE_CURVE ( 'NONE', #339, #239, #291, .T. ) ;
#342 = CC_DESIGN_APPROVAL ( #322, ( #11 ) ) ;
#343 = CARTESIAN_POINT ( 'NONE',  ( -10.00000000000000200, 9.999999999999998200, 10.00000000000000000 ) ) ;
#344 = LINE ( 'NONE', #228, #269 ) ;
#345 = CC_DESIGN_PERSON_AND_ORGANIZATION_ASSIGNMENT ( #27, #352, ( #268 ) ) ;
#346 = ORIENTED_EDGE ( 'NONE', *, *, #104, .T. ) ;
#347 = LINE ( 'NONE', #98, #46 ) ;
#348 = VERTEX_POINT ( 'NONE', #222 ) ;
#349 = DIRECTION ( 'NONE',  ( 0.0000000000000000000, 0.0000000000000000000, 1.000000000000000000 ) ) ;
#350 = DATE_AND_TIME ( #77, #145 ) ;
#351 = DIRECTION ( 'NONE',  ( 0.0000000000000000000, -0.0000000000000000000, 1.000000000000000000 ) ) ;
#352 = PERSON_AND_ORGANIZATION_ROLE ( 'design_supplier' ) ;
#353 = DIRECTION ( 'NONE',  ( 1.000000000000000000, 0.0000000000000000000, 0.0000000000000000000 ) ) ;
#354 = CARTESIAN_POINT ( 'NONE',  ( 10.00000000000000200, -10.00000000000000200, 10.00000000000000000 ) ) ;
ENDSEC;
END-ISO-10303-21;
