ISO-10303-21;
HEADER;
FILE_DESCRIPTION (( 'STEP AP203' ),
    '1' );
FILE_NAME ('Web Model 39396_39434.step',
    '2018-10-05T20:49:17',
    ( '' ),
    ( '' ),
    'SwSTEP 2.0',
    'SolidWorks 2016',
    '' );
FILE_SCHEMA (( 'CONFIG_CONTROL_DESIGN' ));
ENDSEC;

DATA;
#1 = PERSON_AND_ORGANIZATION ( #139, #162 ) ;
#2 = PLANE ( 'NONE',  #118 ) ;
#3 = ORIENTED_EDGE ( 'NONE', *, *, #39, .F. ) ;
#4 = CARTESIAN_POINT ( 'NONE',  ( 0.0000000000000000000, 0.0000000000000000000, -1.000000000000000000 ) ) ;
#5 = PERSON_AND_ORGANIZATION ( #139, #162 ) ;
#6 =( LENGTH_UNIT ( ) NAMED_UNIT ( * ) SI_UNIT ( .MILLI., .METRE. ) );
#7 = EDGE_CURVE ( 'NONE', #60, #169, #62, .T. ) ;
#8 = UNCERTAINTY_MEASURE_WITH_UNIT (LENGTH_MEASURE( 1.000000000000000100E-005 ), #6, 'distance_accuracy_value', 'NONE');
#9 = AXIS2_PLACEMENT_3D ( 'NONE', #161, #116, #85 ) ;
#10 = AXIS2_PLACEMENT_3D ( 'NONE', #71, #81, #117 ) ;
#11 = LINE ( 'NONE', #142, #137 ) ;
#12 = DIRECTION ( 'NONE',  ( 0.0000000000000000000, 0.0000000000000000000, 1.000000000000000000 ) ) ;
#13 =( GEOMETRIC_REPRESENTATION_CONTEXT ( 3 ) GLOBAL_UNCERTAINTY_ASSIGNED_CONTEXT ( ( #8 ) ) GLOBAL_UNIT_ASSIGNED_CONTEXT ( ( #6, #103, #32 ) ) REPRESENTATION_CONTEXT ( 'NONE', 'WORKASPACE' ) );
#14 = DIRECTION ( 'NONE',  ( -1.000000000000000000, 0.0000000000000000000, 0.0000000000000000000 ) ) ;
#15 = DIRECTION ( 'NONE',  ( 0.0000000000000000000, 0.0000000000000000000, 1.000000000000000000 ) ) ;
#16 = MECHANICAL_CONTEXT ( 'NONE', #90, 'mechanical' ) ;
#17 = PRODUCT ( 'Web Model 39396_39434', 'Web Model 39396_39434', '', ( #16 ) ) ;
#18 = AXIS2_PLACEMENT_3D ( 'NONE', #99, #151, #43 ) ;
#19 = ORIENTED_EDGE ( 'NONE', *, *, #98, .F. ) ;
#20 = APPROVAL_PERSON_ORGANIZATION ( #106, #130, #131 ) ;
#21 = APPROVAL_STATUS ( 'not_yet_approved' ) ;
#22 = EDGE_LOOP ( 'NONE', ( #3, #145, #113, #134 ) ) ;
#23 = COORDINATED_UNIVERSAL_TIME_OFFSET ( 5, 0, .BEHIND. ) ;
#24 = AXIS2_PLACEMENT_3D ( 'NONE', #68, #66, #80 ) ;
#25 = CALENDAR_DATE ( 2018, 5, 10 ) ;
#26 = CARTESIAN_POINT ( 'NONE',  ( 0.0000000000000000000, 0.0000000000000000000, 1.000000000000000000 ) ) ;
#27 = DATE_AND_TIME ( #141, #65 ) ;
#28 = SECURITY_CLASSIFICATION_LEVEL ( 'unclassified' ) ;
#29 = APPROVAL_ROLE ( '' ) ;
#30 = EDGE_LOOP ( 'NONE', ( #157, #92 ) ) ;
#31 = APPLICATION_PROTOCOL_DEFINITION ( 'international standard', 'config_control_design', 1994, #90 ) ;
#32 =( NAMED_UNIT ( * ) SI_UNIT ( $, .STERADIAN. ) SOLID_ANGLE_UNIT ( ) );
#33 = AXIS2_PLACEMENT_3D ( 'NONE', #53, #69, #70 ) ;
#34 = CC_DESIGN_PERSON_AND_ORGANIZATION_ASSIGNMENT ( #1, #120, ( #123 ) ) ;
#35 = FACE_OUTER_BOUND ( 'NONE', #72, .T. ) ;
#36 = LOCAL_TIME ( 16, 49, 17.00000000000000000, #23 ) ;
#37 = DATE_AND_TIME ( #158, #75 ) ;
#38 = ORIENTED_EDGE ( 'NONE', *, *, #165, .T. ) ;
#39 = EDGE_CURVE ( 'NONE', #169, #60, #101, .T. ) ;
#40 = APPROVAL_PERSON_ORGANIZATION ( #5, #49, #58 ) ;
#41 = FACE_OUTER_BOUND ( 'NONE', #30, .T. ) ;
#42 = DIRECTION ( 'NONE',  ( -0.0000000000000000000, -0.0000000000000000000, -1.000000000000000000 ) ) ;
#43 = DIRECTION ( 'NONE',  ( 1.000000000000000000, 0.0000000000000000000, 0.0000000000000000000 ) ) ;
#44 = ORIENTED_EDGE ( 'NONE', *, *, #7, .F. ) ;
#45 = EDGE_CURVE ( 'NONE', #64, #124, #155, .T. ) ;
#46 = CLOSED_SHELL ( 'NONE', ( #94, #63, #48, #78 ) ) ;
#47 = PRODUCT_DEFINITION ( 'UNKNOWN', '', #123, #170 ) ;
#48 = ADVANCED_FACE ( 'NONE', ( #127 ), #2, .T. ) ;
#49 = APPROVAL ( #21, 'UNSPECIFIED' ) ;
#50 = LOCAL_TIME ( 16, 49, 17.00000000000000000, #138 ) ;
#51 = CARTESIAN_POINT ( 'NONE',  ( 12.69999999999999900, 1.555301434917138400E-015, 1.000000000000000000 ) ) ;
#52 = PLANE ( 'NONE',  #24 ) ;
#53 = CARTESIAN_POINT ( 'NONE',  ( 0.0000000000000000000, 0.0000000000000000000, 1.000000000000000000 ) ) ;
#54 = PERSON_AND_ORGANIZATION_ROLE ( 'creator' ) ;
#55 = SHAPE_DEFINITION_REPRESENTATION ( #97, #133 ) ;
#56 = PERSON_AND_ORGANIZATION_ROLE ( 'classification_officer' ) ;
#57 = CC_DESIGN_DATE_AND_TIME_ASSIGNMENT ( #76, #87, ( #47 ) ) ;
#58 = APPROVAL_ROLE ( '' ) ;
#59 = LOCAL_TIME ( 16, 49, 17.00000000000000000, #122 ) ;
#60 = VERTEX_POINT ( 'NONE', #148 ) ;
#61 = CC_DESIGN_PERSON_AND_ORGANIZATION_ASSIGNMENT ( #102, #119, ( #47 ) ) ;
#62 = CIRCLE ( 'NONE', #10, 12.69999999999999900 ) ;
#63 = ADVANCED_FACE ( 'NONE', ( #35 ), #152, .T. ) ;
#64 = VERTEX_POINT ( 'NONE', #100 ) ;
#65 = LOCAL_TIME ( 16, 49, 17.00000000000000000, #125 ) ;
#66 = DIRECTION ( 'NONE',  ( 0.0000000000000000000, 0.0000000000000000000, 1.000000000000000000 ) ) ;
#67 = APPROVAL ( #153, 'UNSPECIFIED' ) ;
#68 = CARTESIAN_POINT ( 'NONE',  ( 0.0000000000000000000, 0.0000000000000000000, -1.000000000000000000 ) ) ;
#69 = DIRECTION ( 'NONE',  ( -0.0000000000000000000, -0.0000000000000000000, -1.000000000000000000 ) ) ;
#70 = DIRECTION ( 'NONE',  ( -1.000000000000000000, 0.0000000000000000000, 0.0000000000000000000 ) ) ;
#71 = CARTESIAN_POINT ( 'NONE',  ( 0.0000000000000000000, 0.0000000000000000000, 1.000000000000000000 ) ) ;
#72 = EDGE_LOOP ( 'NONE', ( #19, #44, #159, #38 ) ) ;
#73 = PERSON_AND_ORGANIZATION ( #139, #162 ) ;
#74 = DIRECTION ( 'NONE',  ( 0.0000000000000000000, 0.0000000000000000000, 1.000000000000000000 ) ) ;
#75 = LOCAL_TIME ( 16, 49, 17.00000000000000000, #111 ) ;
#76 = DATE_AND_TIME ( #25, #59 ) ;
#77 = AXIS2_PLACEMENT_3D ( 'NONE', #174, #83, #14 ) ;
#78 = ADVANCED_FACE ( 'NONE', ( #41 ), #52, .F. ) ;
#79 = CYLINDRICAL_SURFACE ( 'NONE', #77, 12.69999999999999900 ) ;
#80 = DIRECTION ( 'NONE',  ( 1.000000000000000000, 0.0000000000000000000, -0.0000000000000000000 ) ) ;
#81 = DIRECTION ( 'NONE',  ( 0.0000000000000000000, 0.0000000000000000000, 1.000000000000000000 ) ) ;
#82 = PERSON_AND_ORGANIZATION ( #139, #162 ) ;
#83 = DIRECTION ( 'NONE',  ( -0.0000000000000000000, -0.0000000000000000000, -1.000000000000000000 ) ) ;
#84 = LINE ( 'NONE', #51, #105 ) ;
#85 = DIRECTION ( 'NONE',  ( 1.000000000000000000, 0.0000000000000000000, 0.0000000000000000000 ) ) ;
#86 = DIRECTION ( 'NONE',  ( -0.0000000000000000000, -0.0000000000000000000, -1.000000000000000000 ) ) ;
#87 = DATE_TIME_ROLE ( 'creation_date' ) ;
#88 = APPROVAL_STATUS ( 'not_yet_approved' ) ;
#89 = CC_DESIGN_DATE_AND_TIME_ASSIGNMENT ( #27, #164, ( #110 ) ) ;
#90 = APPLICATION_CONTEXT ( 'configuration controlled 3d designs of mechanical parts and assemblies' ) ;
#91 = FACE_OUTER_BOUND ( 'NONE', #22, .T. ) ;
#92 = ORIENTED_EDGE ( 'NONE', *, *, #45, .F. ) ;
#93 = CC_DESIGN_PERSON_AND_ORGANIZATION_ASSIGNMENT ( #82, #107, ( #17 ) ) ;
#94 = ADVANCED_FACE ( 'NONE', ( #91 ), #79, .T. ) ;
#95 = CALENDAR_DATE ( 2018, 5, 10 ) ;
#96 = CIRCLE ( 'NONE', #147, 12.69999999999999900 ) ;
#97 = PRODUCT_DEFINITION_SHAPE ( 'NONE', 'NONE',  #47 ) ;
#98 = EDGE_CURVE ( 'NONE', #169, #64, #84, .T. ) ;
#99 = CARTESIAN_POINT ( 'NONE',  ( 0.0000000000000000000, 0.0000000000000000000, 0.0000000000000000000 ) ) ;
#100 = CARTESIAN_POINT ( 'NONE',  ( 12.69999999999999900, 1.555301434917138400E-015, -1.000000000000000000 ) ) ;
#101 = CIRCLE ( 'NONE', #9, 12.69999999999999900 ) ;
#102 = PERSON_AND_ORGANIZATION ( #139, #162 ) ;
#103 =( NAMED_UNIT ( * ) PLANE_ANGLE_UNIT ( ) SI_UNIT ( $, .RADIAN. ) );
#104 = DIRECTION ( 'NONE',  ( 1.000000000000000000, 0.0000000000000000000, 0.0000000000000000000 ) ) ;
#105 = VECTOR ( 'NONE', #42, 1000.000000000000000 ) ;
#106 = PERSON_AND_ORGANIZATION ( #139, #162 ) ;
#107 = PERSON_AND_ORGANIZATION_ROLE ( 'design_owner' ) ;
#108 = ORIENTED_EDGE ( 'NONE', *, *, #39, .T. ) ;
#109 = APPROVAL_DATE_TIME ( #173, #130 ) ;
#110 = SECURITY_CLASSIFICATION ( '', '', #28 ) ;
#111 = COORDINATED_UNIVERSAL_TIME_OFFSET ( 5, 0, .BEHIND. ) ;
#112 = MANIFOLD_SOLID_BREP ( 'Boss-Extrude1', #46 ) ;
#113 = ORIENTED_EDGE ( 'NONE', *, *, #45, .T. ) ;
#114 = DATE_AND_TIME ( #95, #50 ) ;
#115 = DIRECTION ( 'NONE',  ( 1.000000000000000000, 0.0000000000000000000, -0.0000000000000000000 ) ) ;
#116 = DIRECTION ( 'NONE',  ( 0.0000000000000000000, 0.0000000000000000000, 1.000000000000000000 ) ) ;
#117 = DIRECTION ( 'NONE',  ( 1.000000000000000000, 0.0000000000000000000, 0.0000000000000000000 ) ) ;
#118 = AXIS2_PLACEMENT_3D ( 'NONE', #26, #15, #115 ) ;
#119 = PERSON_AND_ORGANIZATION_ROLE ( 'creator' ) ;
#120 = PERSON_AND_ORGANIZATION_ROLE ( 'design_supplier' ) ;
#121 = CC_DESIGN_APPROVAL ( #130, ( #110 ) ) ;
#122 = COORDINATED_UNIVERSAL_TIME_OFFSET ( 5, 0, .BEHIND. ) ;
#123 = PRODUCT_DEFINITION_FORMATION_WITH_SPECIFIED_SOURCE ( 'ANY', '', #17, .NOT_KNOWN. ) ;
#124 = VERTEX_POINT ( 'NONE', #140 ) ;
#125 = COORDINATED_UNIVERSAL_TIME_OFFSET ( 5, 0, .BEHIND. ) ;
#126 = CC_DESIGN_APPROVAL ( #49, ( #47 ) ) ;
#127 = FACE_OUTER_BOUND ( 'NONE', #128, .T. ) ;
#128 = EDGE_LOOP ( 'NONE', ( #160, #108 ) ) ;
#129 = PRODUCT_RELATED_PRODUCT_CATEGORY ( 'detail', '', ( #17 ) ) ;
#130 = APPROVAL ( #88, 'UNSPECIFIED' ) ;
#131 = APPROVAL_ROLE ( '' ) ;
#132 = PERSON_AND_ORGANIZATION ( #139, #162 ) ;
#133 = ADVANCED_BREP_SHAPE_REPRESENTATION ( 'Web Model 39396_39434', ( #112, #18 ), #13 ) ;
#134 = ORIENTED_EDGE ( 'NONE', *, *, #156, .F. ) ;
#135 = CC_DESIGN_SECURITY_CLASSIFICATION ( #110, ( #123 ) ) ;
#136 = PERSON_AND_ORGANIZATION ( #139, #162 ) ;
#137 = VECTOR ( 'NONE', #86, 1000.000000000000000 ) ;
#138 = COORDINATED_UNIVERSAL_TIME_OFFSET ( 5, 0, .BEHIND. ) ;
#139 = PERSON ( 'UNSPECIFIED', 'UNSPECIFIED', 'UNSPECIFIED', ('UNSPECIFIED'), ('UNSPECIFIED'), ('UNSPECIFIED') ) ;
#140 = CARTESIAN_POINT ( 'NONE',  ( -12.69999999999999900, 0.0000000000000000000, -1.000000000000000000 ) ) ;
#141 = CALENDAR_DATE ( 2018, 5, 10 ) ;
#142 = CARTESIAN_POINT ( 'NONE',  ( -12.69999999999999900, 0.0000000000000000000, 1.000000000000000000 ) ) ;
#143 = CC_DESIGN_APPROVAL ( #67, ( #123 ) ) ;
#144 = CALENDAR_DATE ( 2018, 5, 10 ) ;
#145 = ORIENTED_EDGE ( 'NONE', *, *, #98, .T. ) ;
#146 = APPROVAL_PERSON_ORGANIZATION ( #136, #67, #29 ) ;
#147 = AXIS2_PLACEMENT_3D ( 'NONE', #4, #74, #104 ) ;
#148 = CARTESIAN_POINT ( 'NONE',  ( -12.69999999999999900, 0.0000000000000000000, 1.000000000000000000 ) ) ;
#149 = DIRECTION ( 'NONE',  ( 1.000000000000000000, 0.0000000000000000000, 0.0000000000000000000 ) ) ;
#150 = CC_DESIGN_PERSON_AND_ORGANIZATION_ASSIGNMENT ( #73, #56, ( #110 ) ) ;
#151 = DIRECTION ( 'NONE',  ( 0.0000000000000000000, 0.0000000000000000000, 1.000000000000000000 ) ) ;
#152 = CYLINDRICAL_SURFACE ( 'NONE', #33, 12.69999999999999900 ) ;
#153 = APPROVAL_STATUS ( 'not_yet_approved' ) ;
#154 = APPLICATION_CONTEXT ( 'configuration controlled 3d designs of mechanical parts and assemblies' ) ;
#155 = CIRCLE ( 'NONE', #172, 12.69999999999999900 ) ;
#156 = EDGE_CURVE ( 'NONE', #60, #124, #11, .T. ) ;
#157 = ORIENTED_EDGE ( 'NONE', *, *, #165, .F. ) ;
#158 = CALENDAR_DATE ( 2018, 5, 10 ) ;
#159 = ORIENTED_EDGE ( 'NONE', *, *, #156, .T. ) ;
#160 = ORIENTED_EDGE ( 'NONE', *, *, #7, .T. ) ;
#161 = CARTESIAN_POINT ( 'NONE',  ( 0.0000000000000000000, 0.0000000000000000000, 1.000000000000000000 ) ) ;
#162 = ORGANIZATION ( 'UNSPECIFIED', 'UNSPECIFIED', '' ) ;
#163 = CC_DESIGN_PERSON_AND_ORGANIZATION_ASSIGNMENT ( #132, #54, ( #123 ) ) ;
#164 = DATE_TIME_ROLE ( 'classification_date' ) ;
#165 = EDGE_CURVE ( 'NONE', #124, #64, #96, .T. ) ;
#166 = APPLICATION_PROTOCOL_DEFINITION ( 'international standard', 'config_control_design', 1994, #154 ) ;
#167 = CARTESIAN_POINT ( 'NONE',  ( 12.69999999999999900, 1.555301434917138400E-015, 1.000000000000000000 ) ) ;
#168 = APPROVAL_DATE_TIME ( #37, #49 ) ;
#169 = VERTEX_POINT ( 'NONE', #167 ) ;
#170 = DESIGN_CONTEXT ( 'detailed design', #154, 'design' ) ;
#171 = APPROVAL_DATE_TIME ( #114, #67 ) ;
#172 = AXIS2_PLACEMENT_3D ( 'NONE', #175, #12, #149 ) ;
#173 = DATE_AND_TIME ( #144, #36 ) ;
#174 = CARTESIAN_POINT ( 'NONE',  ( 0.0000000000000000000, 0.0000000000000000000, 1.000000000000000000 ) ) ;
#175 = CARTESIAN_POINT ( 'NONE',  ( 0.0000000000000000000, 0.0000000000000000000, -1.000000000000000000 ) ) ;
ENDSEC;
END-ISO-10303-21;
