ISO-10303-21;
HEADER;
FILE_DESCRIPTION (( 'STEP AP203' ),
    '1' );
FILE_NAME ('Web Model 49623.STEP',
    '2017-01-31T15:23:05',
    ( '' ),
    ( '' ),
    'SwSTEP 2.0',
    'SolidWorks 2016',
    '' );
FILE_SCHEMA (( 'CONFIG_CONTROL_DESIGN' ));
ENDSEC;

DATA;
#1 = ORIENTED_EDGE ( 'NONE', *, *, #234, .T. ) ;
#2 = FACE_OUTER_BOUND ( 'NONE', #205, .T. ) ;
#3 = LOCAL_TIME ( 10, 23, 5.000000000000000000, #129 ) ;
#4 = ORIENTED_EDGE ( 'NONE', *, *, #212, .T. ) ;
#5 = LOCAL_TIME ( 10, 23, 5.000000000000000000, #25 ) ;
#6 = EDGE_CURVE ( 'NONE', #23, #174, #137, .T. ) ;
#7 = LINE ( 'NONE', #214, #133 ) ;
#8 = CARTESIAN_POINT ( 'NONE',  ( -5.000000000000000000, 5.000000000000000900, 2.000000000000000000 ) ) ;
#9 = ORIENTED_EDGE ( 'NONE', *, *, #218, .T. ) ;
#10 = DIRECTION ( 'NONE',  ( -0.0000000000000000000, 0.0000000000000000000, 1.000000000000000000 ) ) ;
#11 = DIRECTION ( 'NONE',  ( -0.0000000000000000000, -0.0000000000000000000, -1.000000000000000000 ) ) ;
#12 = DIRECTION ( 'NONE',  ( -1.000000000000000000, -0.0000000000000000000, -0.0000000000000000000 ) ) ;
#13 = CARTESIAN_POINT ( 'NONE',  ( -5.000000000000000000, -4.999999999999999100, 2.000000000000000000 ) ) ;
#14 = LINE ( 'NONE', #29, #142 ) ;
#15 = ORIENTED_EDGE ( 'NONE', *, *, #87, .T. ) ;
#16 = MANIFOLD_SOLID_BREP ( 'Extrude1', #27 ) ;
#17 = AXIS2_PLACEMENT_3D ( 'NONE', #148, #10, #101 ) ;
#18 = ADVANCED_FACE ( 'NONE', ( #139 ), #232, .T. ) ;
#19 = ORIENTED_EDGE ( 'NONE', *, *, #33, .F. ) ;
#20 = ORIENTED_EDGE ( 'NONE', *, *, #33, .T. ) ;
#21 = UNCERTAINTY_MEASURE_WITH_UNIT (LENGTH_MEASURE( 1.000000000000000100E-005 ), #237, 'distance_accuracy_value', 'NONE');
#22 = LOCAL_TIME ( 10, 23, 5.000000000000000000, #34 ) ;
#23 = VERTEX_POINT ( 'NONE', #128 ) ;
#24 = CARTESIAN_POINT ( 'NONE',  ( 5.000000000000000000, 5.000000000000000900, 2.000000000000000000 ) ) ;
#25 = COORDINATED_UNIVERSAL_TIME_OFFSET ( 5, 0, .BEHIND. ) ;
#26 = CARTESIAN_POINT ( 'NONE',  ( 5.000000000000000000, 5.000000000000000900, 0.0000000000000000000 ) ) ;
#27 = CLOSED_SHELL ( 'NONE', ( #189, #51, #204, #171, #18, #91 ) ) ;
#28 = CARTESIAN_POINT ( 'NONE',  ( -5.000000000000000000, -4.999999999999999100, 0.0000000000000000000 ) ) ;
#29 = CARTESIAN_POINT ( 'NONE',  ( -5.000000000000000000, 5.000000000000000900, 0.0000000000000000000 ) ) ;
#30 = PLANE ( 'NONE',  #114 ) ;
#31 = LINE ( 'NONE', #26, #193 ) ;
#32 = VECTOR ( 'NONE', #12, 1000.000000000000000 ) ;
#33 = EDGE_CURVE ( 'NONE', #210, #161, #48, .T. ) ;
#34 = COORDINATED_UNIVERSAL_TIME_OFFSET ( 5, 0, .BEHIND. ) ;
#35 = DATE_AND_TIME ( #39, #5 ) ;
#36 = APPLICATION_PROTOCOL_DEFINITION ( 'international standard', 'config_control_design', 1994, #46 ) ;
#37 = PERSON_AND_ORGANIZATION ( #146, #141 ) ;
#38 = PERSON_AND_ORGANIZATION ( #146, #141 ) ;
#39 = CALENDAR_DATE ( 2017, 31, 1 ) ;
#40 = LINE ( 'NONE', #196, #206 ) ;
#41 = LINE ( 'NONE', #217, #63 ) ;
#42 = DIRECTION ( 'NONE',  ( 0.0000000000000000000, -1.000000000000000000, 0.0000000000000000000 ) ) ;
#43 = CC_DESIGN_PERSON_AND_ORGANIZATION_ASSIGNMENT ( #207, #227, ( #169 ) ) ;
#44 = DIRECTION ( 'NONE',  ( -1.000000000000000000, 0.0000000000000000000, 0.0000000000000000000 ) ) ;
#45 = CARTESIAN_POINT ( 'NONE',  ( 5.000000000000000000, 5.000000000000000900, 2.000000000000000000 ) ) ;
#46 = APPLICATION_CONTEXT ( 'configuration controlled 3d designs of mechanical parts and assemblies' ) ;
#47 = FACE_OUTER_BOUND ( 'NONE', #134, .T. ) ;
#48 = LINE ( 'NONE', #82, #153 ) ;
#49 = APPROVAL_STATUS ( 'not_yet_approved' ) ;
#50 = LINE ( 'NONE', #145, #53 ) ;
#51 = ADVANCED_FACE ( 'NONE', ( #157 ), #30, .F. ) ;
#52 = AXIS2_PLACEMENT_3D ( 'NONE', #236, #130, #150 ) ;
#53 = VECTOR ( 'NONE', #166, 1000.000000000000000 ) ;
#54 = ORIENTED_EDGE ( 'NONE', *, *, #191, .F. ) ;
#55 = CC_DESIGN_APPROVAL ( #162, ( #169 ) ) ;
#56 = DIRECTION ( 'NONE',  ( 0.0000000000000000000, -1.000000000000000000, 0.0000000000000000000 ) ) ;
#57 = LOCAL_TIME ( 10, 23, 5.000000000000000000, #112 ) ;
#58 = DIRECTION ( 'NONE',  ( -0.0000000000000000000, 1.000000000000000000, -0.0000000000000000000 ) ) ;
#59 = CC_DESIGN_PERSON_AND_ORGANIZATION_ASSIGNMENT ( #151, #116, ( #169 ) ) ;
#60 = VERTEX_POINT ( 'NONE', #187 ) ;
#61 = PRODUCT_DEFINITION ( 'UNKNOWN', '', #169, #136 ) ;
#62 = APPROVAL_STATUS ( 'not_yet_approved' ) ;
#63 = VECTOR ( 'NONE', #42, 1000.000000000000000 ) ;
#64 = PERSON_AND_ORGANIZATION ( #146, #141 ) ;
#65 = ORIENTED_EDGE ( 'NONE', *, *, #95, .F. ) ;
#66 = COORDINATED_UNIVERSAL_TIME_OFFSET ( 5, 0, .BEHIND. ) ;
#67 = CC_DESIGN_SECURITY_CLASSIFICATION ( #69, ( #169 ) ) ;
#68 = ORIENTED_EDGE ( 'NONE', *, *, #132, .T. ) ;
#69 = SECURITY_CLASSIFICATION ( '', '', #155 ) ;
#70 = AXIS2_PLACEMENT_3D ( 'NONE', #216, #231, #80 ) ;
#71 = ADVANCED_BREP_SHAPE_REPRESENTATION ( 'Web Model 49623', ( #16, #52 ), #93 ) ;
#72 = FACE_OUTER_BOUND ( 'NONE', #118, .T. ) ;
#73 = ORIENTED_EDGE ( 'NONE', *, *, #132, .F. ) ;
#74 = CARTESIAN_POINT ( 'NONE',  ( -5.000000000000000000, -4.999999999999999100, 2.000000000000000000 ) ) ;
#75 = CC_DESIGN_PERSON_AND_ORGANIZATION_ASSIGNMENT ( #154, #120, ( #61 ) ) ;
#76 = APPROVAL_PERSON_ORGANIZATION ( #37, #152, #135 ) ;
#77 = DIRECTION ( 'NONE',  ( 1.000000000000000000, -8.673617379884035500E-017, 0.0000000000000000000 ) ) ;
#78 = PLANE ( 'NONE',  #70 ) ;
#79 = ORIENTED_EDGE ( 'NONE', *, *, #180, .F. ) ;
#80 = DIRECTION ( 'NONE',  ( 0.0000000000000000000, -0.0000000000000000000, -1.000000000000000000 ) ) ;
#81 = PRODUCT_RELATED_PRODUCT_CATEGORY ( 'detail', '', ( #100 ) ) ;
#82 = CARTESIAN_POINT ( 'NONE',  ( -5.000000000000000000, -4.999999999999999100, 0.0000000000000000000 ) ) ;
#83 = CC_DESIGN_DATE_AND_TIME_ASSIGNMENT ( #226, #197, ( #61 ) ) ;
#84 = CARTESIAN_POINT ( 'NONE',  ( -5.000000000000000000, 5.000000000000000900, 0.0000000000000000000 ) ) ;
#85 = DATE_AND_TIME ( #208, #57 ) ;
#86 = DIRECTION ( 'NONE',  ( 8.673617379884035500E-017, 1.000000000000000000, -0.0000000000000000000 ) ) ;
#87 = EDGE_CURVE ( 'NONE', #106, #23, #111, .T. ) ;
#88 = EDGE_LOOP ( 'NONE', ( #108, #4, #1, #127 ) ) ;
#89 = CC_DESIGN_DATE_AND_TIME_ASSIGNMENT ( #138, #179, ( #69 ) ) ;
#90 = APPROVAL_STATUS ( 'not_yet_approved' ) ;
#91 = ADVANCED_FACE ( 'NONE', ( #47 ), #198, .F. ) ;
#92 = LINE ( 'NONE', #235, #190 ) ;
#93 =( GEOMETRIC_REPRESENTATION_CONTEXT ( 3 ) GLOBAL_UNCERTAINTY_ASSIGNED_CONTEXT ( ( #21 ) ) GLOBAL_UNIT_ASSIGNED_CONTEXT ( ( #237, #188, #131 ) ) REPRESENTATION_CONTEXT ( 'NONE', 'WORKASPACE' ) );
#94 = VERTEX_POINT ( 'NONE', #104 ) ;
#95 = EDGE_CURVE ( 'NONE', #106, #172, #50, .T. ) ;
#96 = APPROVAL_ROLE ( '' ) ;
#97 = VECTOR ( 'NONE', #183, 1000.000000000000000 ) ;
#98 = AXIS2_PLACEMENT_3D ( 'NONE', #24, #44, #185 ) ;
#99 = EDGE_LOOP ( 'NONE', ( #20, #167, #160, #199 ) ) ;
#100 = PRODUCT ( 'Web Model 49623', 'Web Model 49623', '', ( #223 ) ) ;
#101 = DIRECTION ( 'NONE',  ( 1.000000000000000000, 0.0000000000000000000, 0.0000000000000000000 ) ) ;
#102 = DIRECTION ( 'NONE',  ( 1.000000000000000000, -8.673617379884035500E-017, 0.0000000000000000000 ) ) ;
#103 = DIRECTION ( 'NONE',  ( -0.0000000000000000000, 1.000000000000000000, -0.0000000000000000000 ) ) ;
#104 = CARTESIAN_POINT ( 'NONE',  ( 5.000000000000000000, -5.000000000000000000, 2.000000000000000000 ) ) ;
#105 = APPLICATION_CONTEXT ( 'configuration controlled 3d designs of mechanical parts and assemblies' ) ;
#106 = VERTEX_POINT ( 'NONE', #45 ) ;
#107 = APPROVAL_DATE_TIME ( #85, #162 ) ;
#108 = ORIENTED_EDGE ( 'NONE', *, *, #180, .T. ) ;
#109 = APPROVAL ( #90, 'UNSPECIFIED' ) ;
#110 = CALENDAR_DATE ( 2017, 31, 1 ) ;
#111 = LINE ( 'NONE', #186, #140 ) ;
#112 = COORDINATED_UNIVERSAL_TIME_OFFSET ( 5, 0, .BEHIND. ) ;
#113 = EDGE_CURVE ( 'NONE', #94, #161, #92, .T. ) ;
#114 = AXIS2_PLACEMENT_3D ( 'NONE', #13, #86, #221 ) ;
#115 = EDGE_LOOP ( 'NONE', ( #68, #194, #181, #177 ) ) ;
#116 = PERSON_AND_ORGANIZATION_ROLE ( 'creator' ) ;
#117 = LINE ( 'NONE', #74, #97 ) ;
#118 = EDGE_LOOP ( 'NONE', ( #225, #170, #79, #9 ) ) ;
#119 = APPROVAL_PERSON_ORGANIZATION ( #173, #162, #96 ) ;
#120 = PERSON_AND_ORGANIZATION_ROLE ( 'creator' ) ;
#121 = PLANE ( 'NONE',  #209 ) ;
#122 = CARTESIAN_POINT ( 'NONE',  ( -5.000000000000000000, 5.000000000000000900, 2.000000000000000000 ) ) ;
#123 = VECTOR ( 'NONE', #103, 1000.000000000000000 ) ;
#124 = PLANE ( 'NONE',  #98 ) ;
#125 = APPROVAL_PERSON_ORGANIZATION ( #38, #109, #159 ) ;
#126 = CARTESIAN_POINT ( 'NONE',  ( -5.000000000000000000, 5.000000000000000900, 0.0000000000000000000 ) ) ;
#127 = ORIENTED_EDGE ( 'NONE', *, *, #95, .T. ) ;
#128 = CARTESIAN_POINT ( 'NONE',  ( 5.000000000000000000, 5.000000000000000900, 0.0000000000000000000 ) ) ;
#129 = COORDINATED_UNIVERSAL_TIME_OFFSET ( 5, 0, .BEHIND. ) ;
#130 = DIRECTION ( 'NONE',  ( 0.0000000000000000000, 0.0000000000000000000, 1.000000000000000000 ) ) ;
#131 =( NAMED_UNIT ( * ) SI_UNIT ( $, .STERADIAN. ) SOLID_ANGLE_UNIT ( ) );
#132 = EDGE_CURVE ( 'NONE', #161, #23, #31, .T. ) ;
#133 = VECTOR ( 'NONE', #11, 1000.000000000000000 ) ;
#134 = EDGE_LOOP ( 'NONE', ( #54, #222, #73, #19 ) ) ;
#135 = APPROVAL_ROLE ( '' ) ;
#136 = DESIGN_CONTEXT ( 'detailed design', #46, 'design' ) ;
#137 = LINE ( 'NONE', #126, #32 ) ;
#138 = DATE_AND_TIME ( #110, #200 ) ;
#139 = FACE_OUTER_BOUND ( 'NONE', #88, .T. ) ;
#140 = VECTOR ( 'NONE', #233, 1000.000000000000000 ) ;
#141 = ORGANIZATION ( 'UNSPECIFIED', 'UNSPECIFIED', '' ) ;
#142 = VECTOR ( 'NONE', #56, 1000.000000000000000 ) ;
#143 = ORIENTED_EDGE ( 'NONE', *, *, #6, .T. ) ;
#144 = DIRECTION ( 'NONE',  ( 1.000000000000000000, 0.0000000000000000000, -0.0000000000000000000 ) ) ;
#145 = CARTESIAN_POINT ( 'NONE',  ( -5.000000000000000000, 5.000000000000000900, 2.000000000000000000 ) ) ;
#146 = PERSON ( 'UNSPECIFIED', 'UNSPECIFIED', 'UNSPECIFIED', ('UNSPECIFIED'), ('UNSPECIFIED'), ('UNSPECIFIED') ) ;
#147 = APPROVAL_DATE_TIME ( #158, #109 ) ;
#148 = CARTESIAN_POINT ( 'NONE',  ( -5.000000000000000000, 5.000000000000000900, 2.000000000000000000 ) ) ;
#149 = EDGE_CURVE ( 'NONE', #60, #210, #117, .T. ) ;
#150 = DIRECTION ( 'NONE',  ( 1.000000000000000000, 0.0000000000000000000, 0.0000000000000000000 ) ) ;
#151 = PERSON_AND_ORGANIZATION ( #146, #141 ) ;
#152 = APPROVAL ( #49, 'UNSPECIFIED' ) ;
#153 = VECTOR ( 'NONE', #102, 1000.000000000000000 ) ;
#154 = PERSON_AND_ORGANIZATION ( #146, #141 ) ;
#155 = SECURITY_CLASSIFICATION_LEVEL ( 'unclassified' ) ;
#156 = CC_DESIGN_APPROVAL ( #109, ( #69 ) ) ;
#157 = FACE_OUTER_BOUND ( 'NONE', #99, .T. ) ;
#158 = DATE_AND_TIME ( #211, #22 ) ;
#159 = APPROVAL_ROLE ( '' ) ;
#160 = ORIENTED_EDGE ( 'NONE', *, *, #212, .F. ) ;
#161 = VERTEX_POINT ( 'NONE', #213 ) ;
#162 = APPROVAL ( #62, 'UNSPECIFIED' ) ;
#163 = DIRECTION ( 'NONE',  ( 1.000000000000000000, 0.0000000000000000000, 0.0000000000000000000 ) ) ;
#164 = APPLICATION_PROTOCOL_DEFINITION ( 'international standard', 'config_control_design', 1994, #105 ) ;
#165 = FACE_OUTER_BOUND ( 'NONE', #115, .T. ) ;
#166 = DIRECTION ( 'NONE',  ( -1.000000000000000000, -0.0000000000000000000, -0.0000000000000000000 ) ) ;
#167 = ORIENTED_EDGE ( 'NONE', *, *, #113, .F. ) ;
#168 = PERSON_AND_ORGANIZATION_ROLE ( 'design_owner' ) ;
#169 = PRODUCT_DEFINITION_FORMATION_WITH_SPECIFIED_SOURCE ( 'ANY', '', #100, .NOT_KNOWN. ) ;
#170 = ORIENTED_EDGE ( 'NONE', *, *, #149, .F. ) ;
#171 = ADVANCED_FACE ( 'NONE', ( #2 ), #78, .F. ) ;
#172 = VERTEX_POINT ( 'NONE', #122 ) ;
#173 = PERSON_AND_ORGANIZATION ( #146, #141 ) ;
#174 = VERTEX_POINT ( 'NONE', #230 ) ;
#175 = PRODUCT_DEFINITION_SHAPE ( 'NONE', 'NONE',  #61 ) ;
#176 = LINE ( 'NONE', #224, #123 ) ;
#177 = ORIENTED_EDGE ( 'NONE', *, *, #113, .T. ) ;
#178 = DIRECTION ( 'NONE',  ( -0.0000000000000000000, 0.0000000000000000000, -1.000000000000000000 ) ) ;
#179 = DATE_TIME_ROLE ( 'classification_date' ) ;
#180 = EDGE_CURVE ( 'NONE', #172, #60, #41, .T. ) ;
#181 = ORIENTED_EDGE ( 'NONE', *, *, #234, .F. ) ;
#182 = CC_DESIGN_PERSON_AND_ORGANIZATION_ASSIGNMENT ( #201, #168, ( #100 ) ) ;
#183 = DIRECTION ( 'NONE',  ( -0.0000000000000000000, -0.0000000000000000000, -1.000000000000000000 ) ) ;
#184 = AXIS2_PLACEMENT_3D ( 'NONE', #84, #220, #163 ) ;
#185 = DIRECTION ( 'NONE',  ( 0.0000000000000000000, 0.0000000000000000000, 1.000000000000000000 ) ) ;
#186 = CARTESIAN_POINT ( 'NONE',  ( 5.000000000000000000, 5.000000000000000900, 2.000000000000000000 ) ) ;
#187 = CARTESIAN_POINT ( 'NONE',  ( -5.000000000000000000, -4.999999999999999100, 2.000000000000000000 ) ) ;
#188 =( NAMED_UNIT ( * ) PLANE_ANGLE_UNIT ( ) SI_UNIT ( $, .RADIAN. ) );
#189 = ADVANCED_FACE ( 'NONE', ( #72 ), #121, .F. ) ;
#190 = VECTOR ( 'NONE', #229, 1000.000000000000000 ) ;
#191 = EDGE_CURVE ( 'NONE', #174, #210, #14, .T. ) ;
#192 = PERSON_AND_ORGANIZATION_ROLE ( 'classification_officer' ) ;
#193 = VECTOR ( 'NONE', #58, 1000.000000000000000 ) ;
#194 = ORIENTED_EDGE ( 'NONE', *, *, #87, .F. ) ;
#195 = CALENDAR_DATE ( 2017, 31, 1 ) ;
#196 = CARTESIAN_POINT ( 'NONE',  ( -5.000000000000000000, -4.999999999999999100, 2.000000000000000000 ) ) ;
#197 = DATE_TIME_ROLE ( 'creation_date' ) ;
#198 = PLANE ( 'NONE',  #184 ) ;
#199 = ORIENTED_EDGE ( 'NONE', *, *, #149, .T. ) ;
#200 = LOCAL_TIME ( 10, 23, 5.000000000000000000, #66 ) ;
#201 = PERSON_AND_ORGANIZATION ( #146, #141 ) ;
#202 = CC_DESIGN_PERSON_AND_ORGANIZATION_ASSIGNMENT ( #64, #192, ( #69 ) ) ;
#203 = CC_DESIGN_APPROVAL ( #152, ( #61 ) ) ;
#204 = ADVANCED_FACE ( 'NONE', ( #165 ), #124, .F. ) ;
#205 = EDGE_LOOP ( 'NONE', ( #143, #219, #65, #15 ) ) ;
#206 = VECTOR ( 'NONE', #77, 1000.000000000000000 ) ;
#207 = PERSON_AND_ORGANIZATION ( #146, #141 ) ;
#208 = CALENDAR_DATE ( 2017, 31, 1 ) ;
#209 = AXIS2_PLACEMENT_3D ( 'NONE', #8, #144, #178 ) ;
#210 = VERTEX_POINT ( 'NONE', #28 ) ;
#211 = CALENDAR_DATE ( 2017, 31, 1 ) ;
#212 = EDGE_CURVE ( 'NONE', #60, #94, #40, .T. ) ;
#213 = CARTESIAN_POINT ( 'NONE',  ( 5.000000000000000000, -5.000000000000000000, 0.0000000000000000000 ) ) ;
#214 = CARTESIAN_POINT ( 'NONE',  ( -5.000000000000000000, 5.000000000000000900, 2.000000000000000000 ) ) ;
#215 = SHAPE_DEFINITION_REPRESENTATION ( #175, #71 ) ;
#216 = CARTESIAN_POINT ( 'NONE',  ( -5.000000000000000000, 5.000000000000000900, 2.000000000000000000 ) ) ;
#217 = CARTESIAN_POINT ( 'NONE',  ( -5.000000000000000000, 5.000000000000000900, 2.000000000000000000 ) ) ;
#218 = EDGE_CURVE ( 'NONE', #172, #174, #7, .T. ) ;
#219 = ORIENTED_EDGE ( 'NONE', *, *, #218, .F. ) ;
#220 = DIRECTION ( 'NONE',  ( -0.0000000000000000000, 0.0000000000000000000, 1.000000000000000000 ) ) ;
#221 = DIRECTION ( 'NONE',  ( -1.000000000000000000, 8.673617379884035500E-017, 0.0000000000000000000 ) ) ;
#222 = ORIENTED_EDGE ( 'NONE', *, *, #6, .F. ) ;
#223 = MECHANICAL_CONTEXT ( 'NONE', #105, 'mechanical' ) ;
#224 = CARTESIAN_POINT ( 'NONE',  ( 5.000000000000000000, 5.000000000000000900, 2.000000000000000000 ) ) ;
#225 = ORIENTED_EDGE ( 'NONE', *, *, #191, .T. ) ;
#226 = DATE_AND_TIME ( #195, #3 ) ;
#227 = PERSON_AND_ORGANIZATION_ROLE ( 'design_supplier' ) ;
#228 = APPROVAL_DATE_TIME ( #35, #152 ) ;
#229 = DIRECTION ( 'NONE',  ( -0.0000000000000000000, -0.0000000000000000000, -1.000000000000000000 ) ) ;
#230 = CARTESIAN_POINT ( 'NONE',  ( -5.000000000000000000, 5.000000000000000900, 0.0000000000000000000 ) ) ;
#231 = DIRECTION ( 'NONE',  ( 0.0000000000000000000, -1.000000000000000000, 0.0000000000000000000 ) ) ;
#232 = PLANE ( 'NONE',  #17 ) ;
#233 = DIRECTION ( 'NONE',  ( -0.0000000000000000000, -0.0000000000000000000, -1.000000000000000000 ) ) ;
#234 = EDGE_CURVE ( 'NONE', #94, #106, #176, .T. ) ;
#235 = CARTESIAN_POINT ( 'NONE',  ( 5.000000000000000000, -5.000000000000000000, 2.000000000000000000 ) ) ;
#236 = CARTESIAN_POINT ( 'NONE',  ( 0.0000000000000000000, 0.0000000000000000000, 0.0000000000000000000 ) ) ;
#237 =( LENGTH_UNIT ( ) NAMED_UNIT ( * ) SI_UNIT ( .MILLI., .METRE. ) );
ENDSEC;
END-ISO-10303-21;
