ISO-10303-21;
HEADER;
FILE_DESCRIPTION (( 'STEP AP203' ),
    '1' );
FILE_NAME ('Web Model 43974_63219.step',
    '2017-03-01T20:48:25',
    ( '' ),
    ( '' ),
    'SwSTEP 2.0',
    'SolidWorks 2016',
    '' );
FILE_SCHEMA (( 'CONFIG_CONTROL_DESIGN' ));
ENDSEC;

DATA;
#1 = ORIENTED_EDGE ( 'NONE', *, *, #185, .F. ) ;
#2 = PLANE ( 'NONE',  #92 ) ;
#3 = ORIENTED_EDGE ( 'NONE', *, *, #189, .F. ) ;
#4 = CARTESIAN_POINT ( 'NONE',  ( -126.9999999999999400, -101.5500000000000000, 0.0000000000000000000 ) ) ;
#5 = CARTESIAN_POINT ( 'NONE',  ( -127.0000000000000000, 101.5500000000000000, 1.000000000000000000 ) ) ;
#6 = ORIENTED_EDGE ( 'NONE', *, *, #38, .T. ) ;
#7 = EDGE_CURVE ( 'NONE', #85, #194, #193, .T. ) ;
#8 = PERSON_AND_ORGANIZATION_ROLE ( 'creator' ) ;
#9 = CARTESIAN_POINT ( 'NONE',  ( -127.0000000000000000, 101.5500000000000000, 0.0000000000000000000 ) ) ;
#10 = APPROVAL_ROLE ( '' ) ;
#11 = COORDINATED_UNIVERSAL_TIME_OFFSET ( 5, 0, .BEHIND. ) ;
#12 = CARTESIAN_POINT ( 'NONE',  ( -126.9999999999999400, -101.5500000000000000, 1.000000000000000000 ) ) ;
#13 = DIRECTION ( 'NONE',  ( 0.0000000000000000000, 0.0000000000000000000, 1.000000000000000000 ) ) ;
#14 = DIRECTION ( 'NONE',  ( 1.000000000000000000, 2.185478394931410600E-016, 0.0000000000000000000 ) ) ;
#15 = EDGE_CURVE ( 'NONE', #197, #194, #108, .T. ) ;
#16 = ORIENTED_EDGE ( 'NONE', *, *, #15, .F. ) ;
#17 = VECTOR ( 'NONE', #68, 1000.000000000000000 ) ;
#18 = APPROVAL_DATE_TIME ( #136, #165 ) ;
#19 = DIRECTION ( 'NONE',  ( -0.0000000000000000000, -0.0000000000000000000, -1.000000000000000000 ) ) ;
#20 = EDGE_LOOP ( 'NONE', ( #202, #127, #95, #6 ) ) ;
#21 = PLANE ( 'NONE',  #64 ) ;
#22 = CARTESIAN_POINT ( 'NONE',  ( 127.0000000000000000, 101.5499999999999700, 0.0000000000000000000 ) ) ;
#23 = ORIENTED_EDGE ( 'NONE', *, *, #7, .T. ) ;
#24 = DIRECTION ( 'NONE',  ( 2.733193068993492300E-016, -1.000000000000000000, 0.0000000000000000000 ) ) ;
#25 = PERSON_AND_ORGANIZATION ( #121, #50 ) ;
#26 = DIRECTION ( 'NONE',  ( 1.000000000000000000, 2.185478394931410600E-016, 0.0000000000000000000 ) ) ;
#27 = EDGE_CURVE ( 'NONE', #183, #197, #99, .T. ) ;
#28 = DIRECTION ( 'NONE',  ( 1.000000000000000000, 0.0000000000000000000, 0.0000000000000000000 ) ) ;
#29 = APPROVAL_STATUS ( 'not_yet_approved' ) ;
#30 = FACE_OUTER_BOUND ( 'NONE', #20, .T. ) ;
#31 = COORDINATED_UNIVERSAL_TIME_OFFSET ( 5, 0, .BEHIND. ) ;
#32 =( LENGTH_UNIT ( ) NAMED_UNIT ( * ) SI_UNIT ( .MILLI., .METRE. ) );
#33 = LINE ( 'NONE', #4, #182 ) ;
#34 = CARTESIAN_POINT ( 'NONE',  ( -127.0000000000000000, 101.5500000000000000, 1.000000000000000000 ) ) ;
#35 = CARTESIAN_POINT ( 'NONE',  ( 127.0000000000000000, 101.5499999999999700, 1.000000000000000000 ) ) ;
#36 = EDGE_LOOP ( 'NONE', ( #191, #225, #140, #107 ) ) ;
#37 = PERSON_AND_ORGANIZATION_ROLE ( 'design_supplier' ) ;
#38 = EDGE_CURVE ( 'NONE', #41, #65, #196, .T. ) ;
#39 = FACE_OUTER_BOUND ( 'NONE', #36, .T. ) ;
#40 = CARTESIAN_POINT ( 'NONE',  ( 127.0000000000000000, 101.5499999999999700, 1.000000000000000000 ) ) ;
#41 = VERTEX_POINT ( 'NONE', #12 ) ;
#42 = DATE_AND_TIME ( #143, #153 ) ;
#43 = COORDINATED_UNIVERSAL_TIME_OFFSET ( 5, 0, .BEHIND. ) ;
#44 = CARTESIAN_POINT ( 'NONE',  ( 127.0000000000000300, -101.5499999999999400, 0.0000000000000000000 ) ) ;
#45 = ORIENTED_EDGE ( 'NONE', *, *, #7, .F. ) ;
#46 = PRODUCT_RELATED_PRODUCT_CATEGORY ( 'detail', '', ( #74 ) ) ;
#47 = CARTESIAN_POINT ( 'NONE',  ( 127.0000000000000300, -101.5499999999999400, 1.000000000000000000 ) ) ;
#48 = CARTESIAN_POINT ( 'NONE',  ( 0.0000000000000000000, 0.0000000000000000000, 0.0000000000000000000 ) ) ;
#49 = ADVANCED_FACE ( 'NONE', ( #39 ), #84, .F. ) ;
#50 = ORGANIZATION ( 'UNSPECIFIED', 'UNSPECIFIED', '' ) ;
#51 = PLANE ( 'NONE',  #235 ) ;
#52 = CC_DESIGN_SECURITY_CLASSIFICATION ( #145, ( #170 ) ) ;
#53 = EDGE_CURVE ( 'NONE', #210, #65, #231, .T. ) ;
#54 = VECTOR ( 'NONE', #26, 1000.000000000000000 ) ;
#55 = APPLICATION_PROTOCOL_DEFINITION ( 'international standard', 'config_control_design', 1994, #97 ) ;
#56 = DIRECTION ( 'NONE',  ( -1.000000000000000000, 1.092739197465705300E-016, -0.0000000000000000000 ) ) ;
#57 = VECTOR ( 'NONE', #69, 1000.000000000000000 ) ;
#58 = CARTESIAN_POINT ( 'NONE',  ( 0.0000000000000000000, 0.0000000000000000000, 0.0000000000000000000 ) ) ;
#59 = DIRECTION ( 'NONE',  ( -0.0000000000000000000, -0.0000000000000000000, -1.000000000000000000 ) ) ;
#60 = CARTESIAN_POINT ( 'NONE',  ( -127.0000000000000000, 101.5500000000000000, 1.000000000000000000 ) ) ;
#61 = CARTESIAN_POINT ( 'NONE',  ( 127.0000000000000000, 101.5499999999999700, 1.000000000000000000 ) ) ;
#62 = PERSON_AND_ORGANIZATION_ROLE ( 'creator' ) ;
#63 = APPROVAL_STATUS ( 'not_yet_approved' ) ;
#64 = AXIS2_PLACEMENT_3D ( 'NONE', #203, #168, #155 ) ;
#65 = VERTEX_POINT ( 'NONE', #220 ) ;
#66 = CARTESIAN_POINT ( 'NONE',  ( -126.9999999999999400, -101.5500000000000000, 1.000000000000000000 ) ) ;
#67 = CARTESIAN_POINT ( 'NONE',  ( 127.0000000000000000, 101.5499999999999700, 1.000000000000000000 ) ) ;
#68 = DIRECTION ( 'NONE',  ( -1.366596534496746600E-016, 1.000000000000000000, -0.0000000000000000000 ) ) ;
#69 = DIRECTION ( 'NONE',  ( -1.366596534496746600E-016, 1.000000000000000000, -0.0000000000000000000 ) ) ;
#70 = DESIGN_CONTEXT ( 'detailed design', #97, 'design' ) ;
#71 = ADVANCED_FACE ( 'NONE', ( #30 ), #181, .F. ) ;
#72 = DIRECTION ( 'NONE',  ( -1.000000000000000000, 1.092739197465705300E-016, -0.0000000000000000000 ) ) ;
#73 = ADVANCED_FACE ( 'NONE', ( #219 ), #139, .F. ) ;
#74 = PRODUCT ( 'Web Model 43974_63219', 'Web Model 43974_63219', '', ( #195 ) ) ;
#75 = EDGE_CURVE ( 'NONE', #41, #183, #172, .T. ) ;
#76 = ORIENTED_EDGE ( 'NONE', *, *, #216, .T. ) ;
#77 = CC_DESIGN_APPROVAL ( #89, ( #145 ) ) ;
#78 = LINE ( 'NONE', #5, #164 ) ;
#79 = DIRECTION ( 'NONE',  ( 1.000000000000000000, 2.733193068993492300E-016, -0.0000000000000000000 ) ) ;
#80 = UNCERTAINTY_MEASURE_WITH_UNIT (LENGTH_MEASURE( 1.000000000000000100E-005 ), #32, 'distance_accuracy_value', 'NONE');
#81 = EDGE_LOOP ( 'NONE', ( #96, #163, #3, #101 ) ) ;
#82 = ORIENTED_EDGE ( 'NONE', *, *, #53, .F. ) ;
#83 = APPROVAL_PERSON_ORGANIZATION ( #118, #89, #147 ) ;
#84 = PLANE ( 'NONE',  #131 ) ;
#85 = VERTEX_POINT ( 'NONE', #44 ) ;
#86 = FACE_OUTER_BOUND ( 'NONE', #226, .T. ) ;
#87 = CARTESIAN_POINT ( 'NONE',  ( 127.0000000000000300, -101.5499999999999400, 1.000000000000000000 ) ) ;
#88 = DIRECTION ( 'NONE',  ( -0.0000000000000000000, -0.0000000000000000000, -1.000000000000000000 ) ) ;
#89 = APPROVAL ( #232, 'UNSPECIFIED' ) ;
#90 = APPROVAL_DATE_TIME ( #218, #89 ) ;
#91 = APPLICATION_PROTOCOL_DEFINITION ( 'international standard', 'config_control_design', 1994, #234 ) ;
#92 = AXIS2_PLACEMENT_3D ( 'NONE', #34, #79, #144 ) ;
#93 = AXIS2_PLACEMENT_3D ( 'NONE', #40, #135, #129 ) ;
#94 = CARTESIAN_POINT ( 'NONE',  ( -127.0000000000000000, 101.5500000000000000, 0.0000000000000000000 ) ) ;
#95 = ORIENTED_EDGE ( 'NONE', *, *, #75, .F. ) ;
#96 = ORIENTED_EDGE ( 'NONE', *, *, #53, .T. ) ;
#97 = APPLICATION_CONTEXT ( 'configuration controlled 3d designs of mechanical parts and assemblies' ) ;
#98 = VECTOR ( 'NONE', #119, 1000.000000000000000 ) ;
#99 = LINE ( 'NONE', #67, #17 ) ;
#100 = MANIFOLD_SOLID_BREP ( 'Boss-Extrude1', #157 ) ;
#101 = ORIENTED_EDGE ( 'NONE', *, *, #199, .T. ) ;
#102 = PERSON_AND_ORGANIZATION ( #121, #50 ) ;
#103 = AXIS2_PLACEMENT_3D ( 'NONE', #58, #13, #28 ) ;
#104 = SHAPE_DEFINITION_REPRESENTATION ( #214, #137 ) ;
#105 = EDGE_LOOP ( 'NONE', ( #177, #113, #149, #76 ) ) ;
#106 = DIRECTION ( 'NONE',  ( 1.000000000000000000, 0.0000000000000000000, 0.0000000000000000000 ) ) ;
#107 = ORIENTED_EDGE ( 'NONE', *, *, #15, .T. ) ;
#108 = LINE ( 'NONE', #35, #217 ) ;
#109 = PERSON_AND_ORGANIZATION ( #121, #50 ) ;
#110 = LINE ( 'NONE', #47, #98 ) ;
#111 = ADVANCED_FACE ( 'NONE', ( #86 ), #51, .F. ) ;
#112 =( GEOMETRIC_REPRESENTATION_CONTEXT ( 3 ) GLOBAL_UNCERTAINTY_ASSIGNED_CONTEXT ( ( #80 ) ) GLOBAL_UNIT_ASSIGNED_CONTEXT ( ( #32, #160, #115 ) ) REPRESENTATION_CONTEXT ( 'NONE', 'WORKASPACE' ) );
#113 = ORIENTED_EDGE ( 'NONE', *, *, #75, .T. ) ;
#114 = PERSON_AND_ORGANIZATION_ROLE ( 'design_owner' ) ;
#115 =( NAMED_UNIT ( * ) SI_UNIT ( $, .STERADIAN. ) SOLID_ANGLE_UNIT ( ) );
#116 = LINE ( 'NONE', #205, #150 ) ;
#117 = ORIENTED_EDGE ( 'NONE', *, *, #152, .F. ) ;
#118 = PERSON_AND_ORGANIZATION ( #121, #50 ) ;
#119 = DIRECTION ( 'NONE',  ( -0.0000000000000000000, -0.0000000000000000000, -1.000000000000000000 ) ) ;
#120 = CC_DESIGN_DATE_AND_TIME_ASSIGNMENT ( #198, #179, ( #145 ) ) ;
#121 = PERSON ( 'UNSPECIFIED', 'UNSPECIFIED', 'UNSPECIFIED', ('UNSPECIFIED'), ('UNSPECIFIED'), ('UNSPECIFIED') ) ;
#122 = DATE_TIME_ROLE ( 'creation_date' ) ;
#123 = VERTEX_POINT ( 'NONE', #134 ) ;
#124 = DIRECTION ( 'NONE',  ( -2.185478394931410600E-016, 1.000000000000000000, 0.0000000000000000000 ) ) ;
#125 = ORIENTED_EDGE ( 'NONE', *, *, #27, .F. ) ;
#126 = CALENDAR_DATE ( 2017, 1, 3 ) ;
#127 = ORIENTED_EDGE ( 'NONE', *, *, #178, .F. ) ;
#128 = SECURITY_CLASSIFICATION_LEVEL ( 'unclassified' ) ;
#129 = DIRECTION ( 'NONE',  ( 1.366596534496746600E-016, -1.000000000000000000, 0.0000000000000000000 ) ) ;
#130 = APPROVAL_DATE_TIME ( #42, #192 ) ;
#131 = AXIS2_PLACEMENT_3D ( 'NONE', #201, #223, #146 ) ;
#132 = PERSON_AND_ORGANIZATION ( #121, #50 ) ;
#133 = CC_DESIGN_PERSON_AND_ORGANIZATION_ASSIGNMENT ( #109, #148, ( #145 ) ) ;
#134 = CARTESIAN_POINT ( 'NONE',  ( -127.0000000000000000, 101.5500000000000000, 1.000000000000000000 ) ) ;
#135 = DIRECTION ( 'NONE',  ( -1.000000000000000000, -1.366596534496746600E-016, 0.0000000000000000000 ) ) ;
#136 = DATE_AND_TIME ( #126, #138 ) ;
#137 = ADVANCED_BREP_SHAPE_REPRESENTATION ( 'Web Model 43974_63219', ( #100, #103 ), #112 ) ;
#138 = LOCAL_TIME ( 15, 48, 25.00000000000000000, #43 ) ;
#139 = PLANE ( 'NONE',  #93 ) ;
#140 = ORIENTED_EDGE ( 'NONE', *, *, #216, .F. ) ;
#141 = CALENDAR_DATE ( 2017, 1, 3 ) ;
#142 = DIRECTION ( 'NONE',  ( -1.000000000000000000, -2.185478394931410600E-016, 0.0000000000000000000 ) ) ;
#143 = CALENDAR_DATE ( 2017, 1, 3 ) ;
#144 = DIRECTION ( 'NONE',  ( -2.733193068993492300E-016, 1.000000000000000000, 0.0000000000000000000 ) ) ;
#145 = SECURITY_CLASSIFICATION ( '', '', #128 ) ;
#146 = DIRECTION ( 'NONE',  ( 1.000000000000000000, -1.092739197465705300E-016, 0.0000000000000000000 ) ) ;
#147 = APPROVAL_ROLE ( '' ) ;
#148 = PERSON_AND_ORGANIZATION_ROLE ( 'classification_officer' ) ;
#149 = ORIENTED_EDGE ( 'NONE', *, *, #27, .T. ) ;
#150 = VECTOR ( 'NONE', #56, 1000.000000000000000 ) ;
#151 = CC_DESIGN_PERSON_AND_ORGANIZATION_ASSIGNMENT ( #207, #37, ( #170 ) ) ;
#152 = EDGE_CURVE ( 'NONE', #194, #210, #116, .T. ) ;
#153 = LOCAL_TIME ( 15, 48, 25.00000000000000000, #31 ) ;
#154 = ORIENTED_EDGE ( 'NONE', *, *, #178, .T. ) ;
#155 = DIRECTION ( 'NONE',  ( 1.000000000000000000, 0.0000000000000000000, 0.0000000000000000000 ) ) ;
#156 = CC_DESIGN_PERSON_AND_ORGANIZATION_ASSIGNMENT ( #25, #62, ( #170 ) ) ;
#157 = CLOSED_SHELL ( 'NONE', ( #209, #71, #73, #49, #162, #111 ) ) ;
#158 = APPROVAL_PERSON_ORGANIZATION ( #227, #165, #229 ) ;
#159 = CC_DESIGN_APPROVAL ( #165, ( #170 ) ) ;
#160 =( NAMED_UNIT ( * ) PLANE_ANGLE_UNIT ( ) SI_UNIT ( $, .RADIAN. ) );
#161 = LOCAL_TIME ( 15, 48, 25.00000000000000000, #11 ) ;
#162 = ADVANCED_FACE ( 'NONE', ( #215 ), #21, .T. ) ;
#163 = ORIENTED_EDGE ( 'NONE', *, *, #38, .F. ) ;
#164 = VECTOR ( 'NONE', #19, 1000.000000000000000 ) ;
#165 = APPROVAL ( #63, 'UNSPECIFIED' ) ;
#166 = CARTESIAN_POINT ( 'NONE',  ( -126.9999999999999400, -101.5500000000000000, 1.000000000000000000 ) ) ;
#167 = AXIS2_PLACEMENT_3D ( 'NONE', #176, #124, #142 ) ;
#168 = DIRECTION ( 'NONE',  ( -0.0000000000000000000, 0.0000000000000000000, 1.000000000000000000 ) ) ;
#169 = CARTESIAN_POINT ( 'NONE',  ( 127.0000000000000000, 101.5499999999999700, 0.0000000000000000000 ) ) ;
#170 = PRODUCT_DEFINITION_FORMATION_WITH_SPECIFIED_SOURCE ( 'ANY', '', #74, .NOT_KNOWN. ) ;
#171 = VECTOR ( 'NONE', #24, 1000.000000000000000 ) ;
#172 = LINE ( 'NONE', #166, #54 ) ;
#173 = VECTOR ( 'NONE', #59, 1000.000000000000000 ) ;
#174 = FACE_OUTER_BOUND ( 'NONE', #81, .T. ) ;
#175 = CC_DESIGN_DATE_AND_TIME_ASSIGNMENT ( #236, #122, ( #212 ) ) ;
#176 = CARTESIAN_POINT ( 'NONE',  ( -126.9999999999999400, -101.5500000000000000, 1.000000000000000000 ) ) ;
#177 = ORIENTED_EDGE ( 'NONE', *, *, #189, .T. ) ;
#178 = EDGE_CURVE ( 'NONE', #183, #85, #110, .T. ) ;
#179 = DATE_TIME_ROLE ( 'classification_date' ) ;
#180 = CC_DESIGN_PERSON_AND_ORGANIZATION_ASSIGNMENT ( #132, #8, ( #212 ) ) ;
#181 = PLANE ( 'NONE',  #167 ) ;
#182 = VECTOR ( 'NONE', #14, 1000.000000000000000 ) ;
#183 = VERTEX_POINT ( 'NONE', #87 ) ;
#184 = LINE ( 'NONE', #204, #171 ) ;
#185 = EDGE_CURVE ( 'NONE', #65, #85, #33, .T. ) ;
#186 = VECTOR ( 'NONE', #72, 1000.000000000000000 ) ;
#187 = CC_DESIGN_APPROVAL ( #192, ( #212 ) ) ;
#188 = LINE ( 'NONE', #60, #186 ) ;
#189 = EDGE_CURVE ( 'NONE', #123, #41, #184, .T. ) ;
#190 = EDGE_LOOP ( 'NONE', ( #23, #16, #125, #154 ) ) ;
#191 = ORIENTED_EDGE ( 'NONE', *, *, #152, .T. ) ;
#192 = APPROVAL ( #29, 'UNSPECIFIED' ) ;
#193 = LINE ( 'NONE', #169, #57 ) ;
#194 = VERTEX_POINT ( 'NONE', #22 ) ;
#195 = MECHANICAL_CONTEXT ( 'NONE', #234, 'mechanical' ) ;
#196 = LINE ( 'NONE', #66, #173 ) ;
#197 = VERTEX_POINT ( 'NONE', #61 ) ;
#198 = DATE_AND_TIME ( #200, #206 ) ;
#199 = EDGE_CURVE ( 'NONE', #123, #210, #78, .T. ) ;
#200 = CALENDAR_DATE ( 2017, 1, 3 ) ;
#201 = CARTESIAN_POINT ( 'NONE',  ( -127.0000000000000000, 101.5500000000000000, 1.000000000000000000 ) ) ;
#202 = ORIENTED_EDGE ( 'NONE', *, *, #185, .T. ) ;
#203 = CARTESIAN_POINT ( 'NONE',  ( 0.0000000000000000000, 0.0000000000000000000, 1.000000000000000000 ) ) ;
#204 = CARTESIAN_POINT ( 'NONE',  ( -127.0000000000000000, 101.5500000000000000, 1.000000000000000000 ) ) ;
#205 = CARTESIAN_POINT ( 'NONE',  ( -127.0000000000000000, 101.5500000000000000, 0.0000000000000000000 ) ) ;
#206 = LOCAL_TIME ( 15, 48, 25.00000000000000000, #208 ) ;
#207 = PERSON_AND_ORGANIZATION ( #121, #50 ) ;
#208 = COORDINATED_UNIVERSAL_TIME_OFFSET ( 5, 0, .BEHIND. ) ;
#209 = ADVANCED_FACE ( 'NONE', ( #174 ), #2, .F. ) ;
#210 = VERTEX_POINT ( 'NONE', #94 ) ;
#211 = PERSON_AND_ORGANIZATION ( #121, #50 ) ;
#212 = PRODUCT_DEFINITION ( 'UNKNOWN', '', #170, #70 ) ;
#213 = COORDINATED_UNIVERSAL_TIME_OFFSET ( 5, 0, .BEHIND. ) ;
#214 = PRODUCT_DEFINITION_SHAPE ( 'NONE', 'NONE',  #212 ) ;
#215 = FACE_OUTER_BOUND ( 'NONE', #105, .T. ) ;
#216 = EDGE_CURVE ( 'NONE', #197, #123, #188, .T. ) ;
#217 = VECTOR ( 'NONE', #88, 1000.000000000000000 ) ;
#218 = DATE_AND_TIME ( #222, #224 ) ;
#219 = FACE_OUTER_BOUND ( 'NONE', #190, .T. ) ;
#220 = CARTESIAN_POINT ( 'NONE',  ( -126.9999999999999400, -101.5500000000000000, 0.0000000000000000000 ) ) ;
#221 = VECTOR ( 'NONE', #237, 1000.000000000000000 ) ;
#222 = CALENDAR_DATE ( 2017, 1, 3 ) ;
#223 = DIRECTION ( 'NONE',  ( -1.092739197465705300E-016, -1.000000000000000000, 0.0000000000000000000 ) ) ;
#224 = LOCAL_TIME ( 15, 48, 25.00000000000000000, #213 ) ;
#225 = ORIENTED_EDGE ( 'NONE', *, *, #199, .F. ) ;
#226 = EDGE_LOOP ( 'NONE', ( #82, #117, #45, #1 ) ) ;
#227 = PERSON_AND_ORGANIZATION ( #121, #50 ) ;
#228 = CC_DESIGN_PERSON_AND_ORGANIZATION_ASSIGNMENT ( #211, #114, ( #74 ) ) ;
#229 = APPROVAL_ROLE ( '' ) ;
#230 = APPROVAL_PERSON_ORGANIZATION ( #102, #192, #10 ) ;
#231 = LINE ( 'NONE', #9, #221 ) ;
#232 = APPROVAL_STATUS ( 'not_yet_approved' ) ;
#233 = DIRECTION ( 'NONE',  ( -0.0000000000000000000, 0.0000000000000000000, 1.000000000000000000 ) ) ;
#234 = APPLICATION_CONTEXT ( 'configuration controlled 3d designs of mechanical parts and assemblies' ) ;
#235 = AXIS2_PLACEMENT_3D ( 'NONE', #48, #233, #106 ) ;
#236 = DATE_AND_TIME ( #141, #161 ) ;
#237 = DIRECTION ( 'NONE',  ( 2.733193068993492300E-016, -1.000000000000000000, 0.0000000000000000000 ) ) ;
ENDSEC;
END-ISO-10303-21;
