ISO-10303-21;
HEADER;
FILE_DESCRIPTION (( 'STEP AP203' ),
    '1' );
FILE_NAME ('Web Model 32948_32948.step',
    '2017-04-05T18:23:50',
    ( '' ),
    ( '' ),
    'SwSTEP 2.0',
    'SolidWorks 2016',
    '' );
FILE_SCHEMA (( 'CONFIG_CONTROL_DESIGN' ));
ENDSEC;

DATA;
#1 = FACE_OUTER_BOUND ( 'NONE', #79, .T. ) ;
#2 = CARTESIAN_POINT ( 'NONE',  ( 0.0000000000000000000, 0.0000000000000000000, 2.000000000000000000 ) ) ;
#3 = DIRECTION ( 'NONE',  ( 0.0000000000000000000, 0.0000000000000000000, 1.000000000000000000 ) ) ;
#4 = DIRECTION ( 'NONE',  ( 1.000000000000000000, 0.0000000000000000000, 0.0000000000000000000 ) ) ;
#5 = ORIENTED_EDGE ( 'NONE', *, *, #163, .F. ) ;
#6 = DIRECTION ( 'NONE',  ( 0.0000000000000000000, 0.0000000000000000000, 1.000000000000000000 ) ) ;
#7 = ORIENTED_EDGE ( 'NONE', *, *, #84, .T. ) ;
#8 =( NAMED_UNIT ( * ) PLANE_ANGLE_UNIT ( ) SI_UNIT ( $, .RADIAN. ) );
#9 = LOCAL_TIME ( 14, 23, 50.00000000000000000, #148 ) ;
#10 = DATE_TIME_ROLE ( 'creation_date' ) ;
#11 = EDGE_LOOP ( 'NONE', ( #5, #59 ) ) ;
#12 = CIRCLE ( 'NONE', #60, 6.250000000000000000 ) ;
#13 = APPLICATION_CONTEXT ( 'configuration controlled 3d designs of mechanical parts and assemblies' ) ;
#14 = AXIS2_PLACEMENT_3D ( 'NONE', #150, #75, #164 ) ;
#15 = CALENDAR_DATE ( 2017, 5, 4 ) ;
#16 = CC_DESIGN_DATE_AND_TIME_ASSIGNMENT ( #106, #55, ( #162 ) ) ;
#17 = COORDINATED_UNIVERSAL_TIME_OFFSET ( 5, 0, .BEHIND. ) ;
#18 = CYLINDRICAL_SURFACE ( 'NONE', #132, 6.250000000000000000 ) ;
#19 = AXIS2_PLACEMENT_3D ( 'NONE', #2, #3, #4 ) ;
#20 = CARTESIAN_POINT ( 'NONE',  ( 6.250000000000000000, 7.654042494670957600E-016, 2.000000000000000000 ) ) ;
#21 = CARTESIAN_POINT ( 'NONE',  ( 0.0000000000000000000, 0.0000000000000000000, 2.000000000000000000 ) ) ;
#22 =( GEOMETRIC_REPRESENTATION_CONTEXT ( 3 ) GLOBAL_UNCERTAINTY_ASSIGNED_CONTEXT ( ( #63 ) ) GLOBAL_UNIT_ASSIGNED_CONTEXT ( ( #156, #8, #105 ) ) REPRESENTATION_CONTEXT ( 'NONE', 'WORKASPACE' ) );
#23 = DATE_AND_TIME ( #62, #137 ) ;
#24 = FACE_OUTER_BOUND ( 'NONE', #11, .T. ) ;
#25 = AXIS2_PLACEMENT_3D ( 'NONE', #115, #90, #70 ) ;
#26 = PRODUCT_DEFINITION_FORMATION_WITH_SPECIFIED_SOURCE ( 'ANY', '', #28, .NOT_KNOWN. ) ;
#27 = APPROVAL_STATUS ( 'not_yet_approved' ) ;
#28 = PRODUCT ( 'Web Model 32948_32948', 'Web Model 32948_32948', '', ( #39 ) ) ;
#29 = CARTESIAN_POINT ( 'NONE',  ( 0.0000000000000000000, 0.0000000000000000000, 0.0000000000000000000 ) ) ;
#30 = CC_DESIGN_PERSON_AND_ORGANIZATION_ASSIGNMENT ( #47, #95, ( #158 ) ) ;
#31 = ADVANCED_FACE ( 'NONE', ( #1 ), #122, .T. ) ;
#32 = CARTESIAN_POINT ( 'NONE',  ( 6.250000000000000000, 7.654042494670957600E-016, 2.000000000000000000 ) ) ;
#33 = ORIENTED_EDGE ( 'NONE', *, *, #129, .F. ) ;
#34 = PERSON_AND_ORGANIZATION ( #173, #171 ) ;
#35 = LINE ( 'NONE', #68, #72 ) ;
#36 = CC_DESIGN_APPROVAL ( #77, ( #162 ) ) ;
#37 = DIRECTION ( 'NONE',  ( 0.0000000000000000000, 0.0000000000000000000, 1.000000000000000000 ) ) ;
#38 = APPROVAL_ROLE ( '' ) ;
#39 = MECHANICAL_CONTEXT ( 'NONE', #52, 'mechanical' ) ;
#40 = PERSON_AND_ORGANIZATION_ROLE ( 'design_owner' ) ;
#41 = APPROVAL_STATUS ( 'not_yet_approved' ) ;
#42 = DESIGN_CONTEXT ( 'detailed design', #13, 'design' ) ;
#43 = ADVANCED_FACE ( 'NONE', ( #149 ), #111, .T. ) ;
#44 = LOCAL_TIME ( 14, 23, 50.00000000000000000, #134 ) ;
#45 = EDGE_LOOP ( 'NONE', ( #89, #107, #117, #65 ) ) ;
#46 = PRODUCT_RELATED_PRODUCT_CATEGORY ( 'detail', '', ( #28 ) ) ;
#47 = PERSON_AND_ORGANIZATION ( #173, #171 ) ;
#48 = CIRCLE ( 'NONE', #78, 6.250000000000000000 ) ;
#49 = APPROVAL_PERSON_ORGANIZATION ( #34, #169, #136 ) ;
#50 = DIRECTION ( 'NONE',  ( 0.0000000000000000000, 0.0000000000000000000, 1.000000000000000000 ) ) ;
#51 = CC_DESIGN_PERSON_AND_ORGANIZATION_ASSIGNMENT ( #147, #96, ( #26 ) ) ;
#52 = APPLICATION_CONTEXT ( 'configuration controlled 3d designs of mechanical parts and assemblies' ) ;
#53 = APPROVAL_DATE_TIME ( #120, #113 ) ;
#54 = CARTESIAN_POINT ( 'NONE',  ( -6.250000000000000000, 0.0000000000000000000, 0.0000000000000000000 ) ) ;
#55 = DATE_TIME_ROLE ( 'classification_date' ) ;
#56 = AXIS2_PLACEMENT_3D ( 'NONE', #101, #37, #152 ) ;
#57 = APPLICATION_PROTOCOL_DEFINITION ( 'international standard', 'config_control_design', 1994, #52 ) ;
#58 = AXIS2_PLACEMENT_3D ( 'NONE', #29, #6, #91 ) ;
#59 = ORIENTED_EDGE ( 'NONE', *, *, #98, .F. ) ;
#60 = AXIS2_PLACEMENT_3D ( 'NONE', #165, #50, #125 ) ;
#61 = LOCAL_TIME ( 14, 23, 50.00000000000000000, #143 ) ;
#62 = CALENDAR_DATE ( 2017, 5, 4 ) ;
#63 = UNCERTAINTY_MEASURE_WITH_UNIT (LENGTH_MEASURE( 1.000000000000000100E-005 ), #156, 'distance_accuracy_value', 'NONE');
#64 = DIRECTION ( 'NONE',  ( -1.000000000000000000, 0.0000000000000000000, 0.0000000000000000000 ) ) ;
#65 = ORIENTED_EDGE ( 'NONE', *, *, #141, .F. ) ;
#66 = DIRECTION ( 'NONE',  ( 0.0000000000000000000, 0.0000000000000000000, 1.000000000000000000 ) ) ;
#67 = DATE_AND_TIME ( #172, #9 ) ;
#68 = CARTESIAN_POINT ( 'NONE',  ( -6.250000000000000000, 0.0000000000000000000, 2.000000000000000000 ) ) ;
#69 = APPROVAL_STATUS ( 'not_yet_approved' ) ;
#70 = DIRECTION ( 'NONE',  ( 1.000000000000000000, 0.0000000000000000000, 0.0000000000000000000 ) ) ;
#71 = VERTEX_POINT ( 'NONE', #99 ) ;
#72 = VECTOR ( 'NONE', #80, 1000.000000000000000 ) ;
#73 = APPROVAL_PERSON_ORGANIZATION ( #102, #113, #128 ) ;
#74 = VERTEX_POINT ( 'NONE', #151 ) ;
#75 = DIRECTION ( 'NONE',  ( 0.0000000000000000000, 0.0000000000000000000, 1.000000000000000000 ) ) ;
#76 = AXIS2_PLACEMENT_3D ( 'NONE', #126, #109, #64 ) ;
#77 = APPROVAL ( #69, 'UNSPECIFIED' ) ;
#78 = AXIS2_PLACEMENT_3D ( 'NONE', #104, #66, #110 ) ;
#79 = EDGE_LOOP ( 'NONE', ( #116, #7 ) ) ;
#80 = DIRECTION ( 'NONE',  ( -0.0000000000000000000, -0.0000000000000000000, -1.000000000000000000 ) ) ;
#81 = ORIENTED_EDGE ( 'NONE', *, *, #123, .F. ) ;
#82 = PERSON_AND_ORGANIZATION_ROLE ( 'design_supplier' ) ;
#83 = CC_DESIGN_PERSON_AND_ORGANIZATION_ASSIGNMENT ( #135, #82, ( #26 ) ) ;
#84 = EDGE_CURVE ( 'NONE', #131, #74, #12, .T. ) ;
#85 = PERSON_AND_ORGANIZATION ( #173, #171 ) ;
#86 = PLANE ( 'NONE',  #14 ) ;
#87 = LOCAL_TIME ( 14, 23, 50.00000000000000000, #17 ) ;
#88 = CC_DESIGN_DATE_AND_TIME_ASSIGNMENT ( #67, #10, ( #158 ) ) ;
#89 = ORIENTED_EDGE ( 'NONE', *, *, #84, .F. ) ;
#90 = DIRECTION ( 'NONE',  ( 0.0000000000000000000, 0.0000000000000000000, 1.000000000000000000 ) ) ;
#91 = DIRECTION ( 'NONE',  ( 1.000000000000000000, 0.0000000000000000000, 0.0000000000000000000 ) ) ;
#92 = CALENDAR_DATE ( 2017, 5, 4 ) ;
#93 = APPLICATION_PROTOCOL_DEFINITION ( 'international standard', 'config_control_design', 1994, #13 ) ;
#94 = VECTOR ( 'NONE', #146, 1000.000000000000000 ) ;
#95 = PERSON_AND_ORGANIZATION_ROLE ( 'creator' ) ;
#96 = PERSON_AND_ORGANIZATION_ROLE ( 'creator' ) ;
#97 = ADVANCED_FACE ( 'NONE', ( #160 ), #18, .T. ) ;
#98 = EDGE_CURVE ( 'NONE', #71, #140, #48, .T. ) ;
#99 = CARTESIAN_POINT ( 'NONE',  ( 6.250000000000000000, 7.654042494670957600E-016, 0.0000000000000000000 ) ) ;
#100 = CC_DESIGN_PERSON_AND_ORGANIZATION_ASSIGNMENT ( #166, #40, ( #28 ) ) ;
#101 = CARTESIAN_POINT ( 'NONE',  ( 0.0000000000000000000, 0.0000000000000000000, 2.000000000000000000 ) ) ;
#102 = PERSON_AND_ORGANIZATION ( #173, #171 ) ;
#103 = ORIENTED_EDGE ( 'NONE', *, *, #163, .T. ) ;
#104 = CARTESIAN_POINT ( 'NONE',  ( 0.0000000000000000000, 0.0000000000000000000, 0.0000000000000000000 ) ) ;
#105 =( NAMED_UNIT ( * ) SI_UNIT ( $, .STERADIAN. ) SOLID_ANGLE_UNIT ( ) );
#106 = DATE_AND_TIME ( #92, #87 ) ;
#107 = ORIENTED_EDGE ( 'NONE', *, *, #123, .T. ) ;
#108 = CC_DESIGN_PERSON_AND_ORGANIZATION_ASSIGNMENT ( #85, #170, ( #162 ) ) ;
#109 = DIRECTION ( 'NONE',  ( -0.0000000000000000000, -0.0000000000000000000, -1.000000000000000000 ) ) ;
#110 = DIRECTION ( 'NONE',  ( 1.000000000000000000, 0.0000000000000000000, 0.0000000000000000000 ) ) ;
#111 = CYLINDRICAL_SURFACE ( 'NONE', #76, 6.250000000000000000 ) ;
#112 = PRODUCT_DEFINITION_SHAPE ( 'NONE', 'NONE',  #158 ) ;
#113 = APPROVAL ( #27, 'UNSPECIFIED' ) ;
#114 = APPROVAL_DATE_TIME ( #119, #169 ) ;
#115 = CARTESIAN_POINT ( 'NONE',  ( 0.0000000000000000000, 0.0000000000000000000, 0.0000000000000000000 ) ) ;
#116 = ORIENTED_EDGE ( 'NONE', *, *, #129, .T. ) ;
#117 = ORIENTED_EDGE ( 'NONE', *, *, #98, .T. ) ;
#118 = MANIFOLD_SOLID_BREP ( 'Extrude1', #157 ) ;
#119 = DATE_AND_TIME ( #15, #44 ) ;
#120 = DATE_AND_TIME ( #153, #61 ) ;
#121 = CC_DESIGN_APPROVAL ( #169, ( #26 ) ) ;
#122 = PLANE ( 'NONE',  #56 ) ;
#123 = EDGE_CURVE ( 'NONE', #131, #71, #155, .T. ) ;
#124 = DIRECTION ( 'NONE',  ( -0.0000000000000000000, -0.0000000000000000000, -1.000000000000000000 ) ) ;
#125 = DIRECTION ( 'NONE',  ( 1.000000000000000000, 0.0000000000000000000, 0.0000000000000000000 ) ) ;
#126 = CARTESIAN_POINT ( 'NONE',  ( 0.0000000000000000000, 0.0000000000000000000, 2.000000000000000000 ) ) ;
#127 = APPROVAL_DATE_TIME ( #23, #77 ) ;
#128 = APPROVAL_ROLE ( '' ) ;
#129 = EDGE_CURVE ( 'NONE', #74, #131, #144, .T. ) ;
#130 = ADVANCED_FACE ( 'NONE', ( #24 ), #86, .F. ) ;
#131 = VERTEX_POINT ( 'NONE', #20 ) ;
#132 = AXIS2_PLACEMENT_3D ( 'NONE', #21, #124, #161 ) ;
#133 = COORDINATED_UNIVERSAL_TIME_OFFSET ( 5, 0, .BEHIND. ) ;
#134 = COORDINATED_UNIVERSAL_TIME_OFFSET ( 5, 0, .BEHIND. ) ;
#135 = PERSON_AND_ORGANIZATION ( #173, #171 ) ;
#136 = APPROVAL_ROLE ( '' ) ;
#137 = LOCAL_TIME ( 14, 23, 50.00000000000000000, #133 ) ;
#138 = CC_DESIGN_APPROVAL ( #113, ( #158 ) ) ;
#139 = SECURITY_CLASSIFICATION_LEVEL ( 'unclassified' ) ;
#140 = VERTEX_POINT ( 'NONE', #54 ) ;
#141 = EDGE_CURVE ( 'NONE', #74, #140, #35, .T. ) ;
#142 = ADVANCED_BREP_SHAPE_REPRESENTATION ( 'Web Model 32948_32948', ( #118, #58 ), #22 ) ;
#143 = COORDINATED_UNIVERSAL_TIME_OFFSET ( 5, 0, .BEHIND. ) ;
#144 = CIRCLE ( 'NONE', #19, 6.250000000000000000 ) ;
#145 = ORIENTED_EDGE ( 'NONE', *, *, #141, .T. ) ;
#146 = DIRECTION ( 'NONE',  ( -0.0000000000000000000, -0.0000000000000000000, -1.000000000000000000 ) ) ;
#147 = PERSON_AND_ORGANIZATION ( #173, #171 ) ;
#148 = COORDINATED_UNIVERSAL_TIME_OFFSET ( 5, 0, .BEHIND. ) ;
#149 = FACE_OUTER_BOUND ( 'NONE', #45, .T. ) ;
#150 = CARTESIAN_POINT ( 'NONE',  ( 0.0000000000000000000, 0.0000000000000000000, 0.0000000000000000000 ) ) ;
#151 = CARTESIAN_POINT ( 'NONE',  ( -6.250000000000000000, 0.0000000000000000000, 2.000000000000000000 ) ) ;
#152 = DIRECTION ( 'NONE',  ( 1.000000000000000000, 0.0000000000000000000, -0.0000000000000000000 ) ) ;
#153 = CALENDAR_DATE ( 2017, 5, 4 ) ;
#154 = PERSON_AND_ORGANIZATION ( #173, #171 ) ;
#155 = LINE ( 'NONE', #32, #94 ) ;
#156 =( LENGTH_UNIT ( ) NAMED_UNIT ( * ) SI_UNIT ( .MILLI., .METRE. ) );
#157 = CLOSED_SHELL ( 'NONE', ( #43, #97, #31, #130 ) ) ;
#158 = PRODUCT_DEFINITION ( 'UNKNOWN', '', #26, #42 ) ;
#159 = APPROVAL_PERSON_ORGANIZATION ( #154, #77, #38 ) ;
#160 = FACE_OUTER_BOUND ( 'NONE', #167, .T. ) ;
#161 = DIRECTION ( 'NONE',  ( -1.000000000000000000, 0.0000000000000000000, 0.0000000000000000000 ) ) ;
#162 = SECURITY_CLASSIFICATION ( '', '', #139 ) ;
#163 = EDGE_CURVE ( 'NONE', #140, #71, #168, .T. ) ;
#164 = DIRECTION ( 'NONE',  ( 1.000000000000000000, 0.0000000000000000000, -0.0000000000000000000 ) ) ;
#165 = CARTESIAN_POINT ( 'NONE',  ( 0.0000000000000000000, 0.0000000000000000000, 2.000000000000000000 ) ) ;
#166 = PERSON_AND_ORGANIZATION ( #173, #171 ) ;
#167 = EDGE_LOOP ( 'NONE', ( #81, #33, #145, #103 ) ) ;
#168 = CIRCLE ( 'NONE', #25, 6.250000000000000000 ) ;
#169 = APPROVAL ( #41, 'UNSPECIFIED' ) ;
#170 = PERSON_AND_ORGANIZATION_ROLE ( 'classification_officer' ) ;
#171 = ORGANIZATION ( 'UNSPECIFIED', 'UNSPECIFIED', '' ) ;
#172 = CALENDAR_DATE ( 2017, 5, 4 ) ;
#173 = PERSON ( 'UNSPECIFIED', 'UNSPECIFIED', 'UNSPECIFIED', ('UNSPECIFIED'), ('UNSPECIFIED'), ('UNSPECIFIED') ) ;
#174 = CC_DESIGN_SECURITY_CLASSIFICATION ( #162, ( #26 ) ) ;
#175 = SHAPE_DEFINITION_REPRESENTATION ( #112, #142 ) ;
ENDSEC;
END-ISO-10303-21;
