ISO-10303-21;
HEADER;
FILE_DESCRIPTION (( 'STEP AP203' ),
    '1' );
FILE_NAME ('Web Model 32950_32950.step',
    '2017-04-05T18:28:06',
    ( '' ),
    ( '' ),
    'SwSTEP 2.0',
    'SolidWorks 2016',
    '' );
FILE_SCHEMA (( 'CONFIG_CONTROL_DESIGN' ));
ENDSEC;

DATA;
#1 = PERSON_AND_ORGANIZATION ( #172, #131 ) ;
#2 = VECTOR ( 'NONE', #7, 1000.000000000000000 ) ;
#3 = AXIS2_PLACEMENT_3D ( 'NONE', #67, #110, #29 ) ;
#4 = DIRECTION ( 'NONE',  ( -1.000000000000000000, 0.0000000000000000000, 0.0000000000000000000 ) ) ;
#5 = CLOSED_SHELL ( 'NONE', ( #148, #105, #94, #90 ) ) ;
#6 = CC_DESIGN_APPROVAL ( #30, ( #68 ) ) ;
#7 = DIRECTION ( 'NONE',  ( -0.0000000000000000000, -0.0000000000000000000, -1.000000000000000000 ) ) ;
#8 = CARTESIAN_POINT ( 'NONE',  ( -10.00000000000000000, 0.0000000000000000000, 2.000000000000000000 ) ) ;
#9 = DIRECTION ( 'NONE',  ( -0.0000000000000000000, -0.0000000000000000000, -1.000000000000000000 ) ) ;
#10 = CARTESIAN_POINT ( 'NONE',  ( 0.0000000000000000000, 0.0000000000000000000, 2.000000000000000000 ) ) ;
#11 = PRODUCT_RELATED_PRODUCT_CATEGORY ( 'detail', '', ( #23 ) ) ;
#12 = APPROVAL_DATE_TIME ( #73, #30 ) ;
#13 = AXIS2_PLACEMENT_3D ( 'NONE', #159, #125, #19 ) ;
#14 = DATE_AND_TIME ( #74, #146 ) ;
#15 = PERSON_AND_ORGANIZATION_ROLE ( 'creator' ) ;
#16 = APPLICATION_CONTEXT ( 'configuration controlled 3d designs of mechanical parts and assemblies' ) ;
#17 = FACE_OUTER_BOUND ( 'NONE', #42, .T. ) ;
#18 = ORIENTED_EDGE ( 'NONE', *, *, #91, .F. ) ;
#19 = DIRECTION ( 'NONE',  ( 1.000000000000000000, 0.0000000000000000000, -0.0000000000000000000 ) ) ;
#20 = ORIENTED_EDGE ( 'NONE', *, *, #115, .T. ) ;
#21 = DIRECTION ( 'NONE',  ( 1.000000000000000000, 0.0000000000000000000, 0.0000000000000000000 ) ) ;
#22 = EDGE_CURVE ( 'NONE', #86, #56, #66, .T. ) ;
#23 = PRODUCT ( 'Web Model 32950_32950', 'Web Model 32950_32950', '', ( #63 ) ) ;
#24 = LOCAL_TIME ( 14, 28, 6.000000000000000000, #88 ) ;
#25 = AXIS2_PLACEMENT_3D ( 'NONE', #57, #98, #4 ) ;
#26 = CALENDAR_DATE ( 2017, 5, 4 ) ;
#27 = APPROVAL_STATUS ( 'not_yet_approved' ) ;
#28 = SHAPE_DEFINITION_REPRESENTATION ( #164, #120 ) ;
#29 = DIRECTION ( 'NONE',  ( 1.000000000000000000, 0.0000000000000000000, 0.0000000000000000000 ) ) ;
#30 = APPROVAL ( #38, 'UNSPECIFIED' ) ;
#31 = PERSON_AND_ORGANIZATION_ROLE ( 'creator' ) ;
#32 = ORIENTED_EDGE ( 'NONE', *, *, #171, .T. ) ;
#33 = CARTESIAN_POINT ( 'NONE',  ( 0.0000000000000000000, 0.0000000000000000000, 0.0000000000000000000 ) ) ;
#34 = CARTESIAN_POINT ( 'NONE',  ( -10.00000000000000000, 0.0000000000000000000, 0.0000000000000000000 ) ) ;
#35 = COORDINATED_UNIVERSAL_TIME_OFFSET ( 5, 0, .BEHIND. ) ;
#36 = LOCAL_TIME ( 14, 28, 6.000000000000000000, #101 ) ;
#37 = COORDINATED_UNIVERSAL_TIME_OFFSET ( 5, 0, .BEHIND. ) ;
#38 = APPROVAL_STATUS ( 'not_yet_approved' ) ;
#39 = AXIS2_PLACEMENT_3D ( 'NONE', #55, #82, #139 ) ;
#40 = FACE_OUTER_BOUND ( 'NONE', #109, .T. ) ;
#41 = DATE_AND_TIME ( #72, #141 ) ;
#42 = EDGE_LOOP ( 'NONE', ( #166, #124, #97, #169 ) ) ;
#43 = PLANE ( 'NONE',  #13 ) ;
#44 = EDGE_LOOP ( 'NONE', ( #20, #32 ) ) ;
#45 = CARTESIAN_POINT ( 'NONE',  ( 10.00000000000000000, 1.224646799147353300E-015, 0.0000000000000000000 ) ) ;
#46 = CARTESIAN_POINT ( 'NONE',  ( 0.0000000000000000000, 0.0000000000000000000, 2.000000000000000000 ) ) ;
#47 = PERSON_AND_ORGANIZATION ( #172, #131 ) ;
#48 = PERSON_AND_ORGANIZATION ( #172, #131 ) ;
#49 = PERSON_AND_ORGANIZATION_ROLE ( 'design_owner' ) ;
#50 = PERSON_AND_ORGANIZATION_ROLE ( 'classification_officer' ) ;
#51 = SECURITY_CLASSIFICATION ( '', '', #104 ) ;
#52 = CYLINDRICAL_SURFACE ( 'NONE', #108, 10.00000000000000000 ) ;
#53 = VERTEX_POINT ( 'NONE', #81 ) ;
#54 = CARTESIAN_POINT ( 'NONE',  ( 10.00000000000000000, 1.224646799147353300E-015, 2.000000000000000000 ) ) ;
#55 = CARTESIAN_POINT ( 'NONE',  ( 0.0000000000000000000, 0.0000000000000000000, 0.0000000000000000000 ) ) ;
#56 = VERTEX_POINT ( 'NONE', #34 ) ;
#57 = CARTESIAN_POINT ( 'NONE',  ( 0.0000000000000000000, 0.0000000000000000000, 2.000000000000000000 ) ) ;
#58 = DATE_AND_TIME ( #127, #24 ) ;
#59 = CC_DESIGN_DATE_AND_TIME_ASSIGNMENT ( #58, #116, ( #51 ) ) ;
#60 = PERSON_AND_ORGANIZATION ( #172, #131 ) ;
#61 = DESIGN_CONTEXT ( 'detailed design', #16, 'design' ) ;
#62 = PERSON_AND_ORGANIZATION ( #172, #131 ) ;
#63 = MECHANICAL_CONTEXT ( 'NONE', #130, 'mechanical' ) ;
#64 = APPROVAL_DATE_TIME ( #41, #149 ) ;
#65 = CYLINDRICAL_SURFACE ( 'NONE', #25, 10.00000000000000000 ) ;
#66 = LINE ( 'NONE', #8, #2 ) ;
#67 = CARTESIAN_POINT ( 'NONE',  ( 0.0000000000000000000, 0.0000000000000000000, 0.0000000000000000000 ) ) ;
#68 = PRODUCT_DEFINITION_FORMATION_WITH_SPECIFIED_SOURCE ( 'ANY', '', #23, .NOT_KNOWN. ) ;
#69 = ORIENTED_EDGE ( 'NONE', *, *, #91, .T. ) ;
#70 = DIRECTION ( 'NONE',  ( 1.000000000000000000, 0.0000000000000000000, -0.0000000000000000000 ) ) ;
#71 = DIRECTION ( 'NONE',  ( 0.0000000000000000000, 0.0000000000000000000, 1.000000000000000000 ) ) ;
#72 = CALENDAR_DATE ( 2017, 5, 4 ) ;
#73 = DATE_AND_TIME ( #144, #36 ) ;
#74 = CALENDAR_DATE ( 2017, 5, 4 ) ;
#75 = CC_DESIGN_DATE_AND_TIME_ASSIGNMENT ( #129, #92, ( #133 ) ) ;
#76 = CC_DESIGN_PERSON_AND_ORGANIZATION_ASSIGNMENT ( #47, #163, ( #68 ) ) ;
#77 =( NAMED_UNIT ( * ) SI_UNIT ( $, .STERADIAN. ) SOLID_ANGLE_UNIT ( ) );
#78 = CIRCLE ( 'NONE', #136, 10.00000000000000000 ) ;
#79 = ORIENTED_EDGE ( 'NONE', *, *, #115, .F. ) ;
#80 = DIRECTION ( 'NONE',  ( 1.000000000000000000, 0.0000000000000000000, 0.0000000000000000000 ) ) ;
#81 = CARTESIAN_POINT ( 'NONE',  ( 10.00000000000000000, 1.224646799147353300E-015, 2.000000000000000000 ) ) ;
#82 = DIRECTION ( 'NONE',  ( 0.0000000000000000000, 0.0000000000000000000, 1.000000000000000000 ) ) ;
#83 = EDGE_LOOP ( 'NONE', ( #174, #79, #138, #69 ) ) ;
#84 = MANIFOLD_SOLID_BREP ( 'Extrude1', #5 ) ;
#85 = CARTESIAN_POINT ( 'NONE',  ( 0.0000000000000000000, 0.0000000000000000000, 0.0000000000000000000 ) ) ;
#86 = VERTEX_POINT ( 'NONE', #168 ) ;
#87 = CC_DESIGN_PERSON_AND_ORGANIZATION_ASSIGNMENT ( #48, #31, ( #133 ) ) ;
#88 = COORDINATED_UNIVERSAL_TIME_OFFSET ( 5, 0, .BEHIND. ) ;
#89 = LOCAL_TIME ( 14, 28, 6.000000000000000000, #162 ) ;
#90 = ADVANCED_FACE ( 'NONE', ( #40 ), #123, .F. ) ;
#91 = EDGE_CURVE ( 'NONE', #56, #95, #158, .T. ) ;
#92 = DATE_TIME_ROLE ( 'creation_date' ) ;
#93 =( GEOMETRIC_REPRESENTATION_CONTEXT ( 3 ) GLOBAL_UNCERTAINTY_ASSIGNED_CONTEXT ( ( #157 ) ) GLOBAL_UNIT_ASSIGNED_CONTEXT ( ( #121, #96, #77 ) ) REPRESENTATION_CONTEXT ( 'NONE', 'WORKASPACE' ) );
#94 = ADVANCED_FACE ( 'NONE', ( #106 ), #43, .T. ) ;
#95 = VERTEX_POINT ( 'NONE', #45 ) ;
#96 =( NAMED_UNIT ( * ) PLANE_ANGLE_UNIT ( ) SI_UNIT ( $, .RADIAN. ) );
#97 = ORIENTED_EDGE ( 'NONE', *, *, #153, .T. ) ;
#98 = DIRECTION ( 'NONE',  ( -0.0000000000000000000, -0.0000000000000000000, -1.000000000000000000 ) ) ;
#99 = APPROVAL_PERSON_ORGANIZATION ( #173, #149, #145 ) ;
#100 = CC_DESIGN_APPROVAL ( #149, ( #51 ) ) ;
#101 = COORDINATED_UNIVERSAL_TIME_OFFSET ( 5, 0, .BEHIND. ) ;
#102 = APPROVAL_PERSON_ORGANIZATION ( #1, #122, #114 ) ;
#103 = APPLICATION_PROTOCOL_DEFINITION ( 'international standard', 'config_control_design', 1994, #16 ) ;
#104 = SECURITY_CLASSIFICATION_LEVEL ( 'unclassified' ) ;
#105 = ADVANCED_FACE ( 'NONE', ( #135 ), #52, .T. ) ;
#106 = FACE_OUTER_BOUND ( 'NONE', #44, .T. ) ;
#107 = DIRECTION ( 'NONE',  ( -0.0000000000000000000, -0.0000000000000000000, -1.000000000000000000 ) ) ;
#108 = AXIS2_PLACEMENT_3D ( 'NONE', #10, #9, #155 ) ;
#109 = EDGE_LOOP ( 'NONE', ( #18, #160 ) ) ;
#110 = DIRECTION ( 'NONE',  ( 0.0000000000000000000, 0.0000000000000000000, 1.000000000000000000 ) ) ;
#111 = CC_DESIGN_APPROVAL ( #122, ( #133 ) ) ;
#112 = PERSON_AND_ORGANIZATION ( #172, #131 ) ;
#113 = APPROVAL_DATE_TIME ( #14, #122 ) ;
#114 = APPROVAL_ROLE ( '' ) ;
#115 = EDGE_CURVE ( 'NONE', #86, #53, #119, .T. ) ;
#116 = DATE_TIME_ROLE ( 'classification_date' ) ;
#117 = CC_DESIGN_SECURITY_CLASSIFICATION ( #51, ( #68 ) ) ;
#118 = AXIS2_PLACEMENT_3D ( 'NONE', #46, #71, #21 ) ;
#119 = CIRCLE ( 'NONE', #118, 10.00000000000000000 ) ;
#120 = ADVANCED_BREP_SHAPE_REPRESENTATION ( 'Web Model 32950_32950', ( #84, #3 ), #93 ) ;
#121 =( LENGTH_UNIT ( ) NAMED_UNIT ( * ) SI_UNIT ( .MILLI., .METRE. ) );
#122 = APPROVAL ( #151, 'UNSPECIFIED' ) ;
#123 = PLANE ( 'NONE',  #150 ) ;
#124 = ORIENTED_EDGE ( 'NONE', *, *, #137, .T. ) ;
#125 = DIRECTION ( 'NONE',  ( 0.0000000000000000000, 0.0000000000000000000, 1.000000000000000000 ) ) ;
#126 = DIRECTION ( 'NONE',  ( 0.0000000000000000000, 0.0000000000000000000, 1.000000000000000000 ) ) ;
#127 = CALENDAR_DATE ( 2017, 5, 4 ) ;
#128 = AXIS2_PLACEMENT_3D ( 'NONE', #85, #126, #167 ) ;
#129 = DATE_AND_TIME ( #26, #89 ) ;
#130 = APPLICATION_CONTEXT ( 'configuration controlled 3d designs of mechanical parts and assemblies' ) ;
#131 = ORGANIZATION ( 'UNSPECIFIED', 'UNSPECIFIED', '' ) ;
#132 = APPROVAL_ROLE ( '' ) ;
#133 = PRODUCT_DEFINITION ( 'UNKNOWN', '', #68, #61 ) ;
#134 = CIRCLE ( 'NONE', #39, 10.00000000000000000 ) ;
#135 = FACE_OUTER_BOUND ( 'NONE', #83, .T. ) ;
#136 = AXIS2_PLACEMENT_3D ( 'NONE', #154, #140, #80 ) ;
#137 = EDGE_CURVE ( 'NONE', #53, #95, #152, .T. ) ;
#138 = ORIENTED_EDGE ( 'NONE', *, *, #22, .T. ) ;
#139 = DIRECTION ( 'NONE',  ( 1.000000000000000000, 0.0000000000000000000, 0.0000000000000000000 ) ) ;
#140 = DIRECTION ( 'NONE',  ( 0.0000000000000000000, 0.0000000000000000000, 1.000000000000000000 ) ) ;
#141 = LOCAL_TIME ( 14, 28, 6.000000000000000000, #35 ) ;
#142 = CC_DESIGN_PERSON_AND_ORGANIZATION_ASSIGNMENT ( #62, #49, ( #23 ) ) ;
#143 = CC_DESIGN_PERSON_AND_ORGANIZATION_ASSIGNMENT ( #161, #50, ( #51 ) ) ;
#144 = CALENDAR_DATE ( 2017, 5, 4 ) ;
#145 = APPROVAL_ROLE ( '' ) ;
#146 = LOCAL_TIME ( 14, 28, 6.000000000000000000, #37 ) ;
#147 = APPLICATION_PROTOCOL_DEFINITION ( 'international standard', 'config_control_design', 1994, #130 ) ;
#148 = ADVANCED_FACE ( 'NONE', ( #17 ), #65, .T. ) ;
#149 = APPROVAL ( #27, 'UNSPECIFIED' ) ;
#150 = AXIS2_PLACEMENT_3D ( 'NONE', #33, #170, #70 ) ;
#151 = APPROVAL_STATUS ( 'not_yet_approved' ) ;
#152 = LINE ( 'NONE', #54, #165 ) ;
#153 = EDGE_CURVE ( 'NONE', #95, #56, #134, .T. ) ;
#154 = CARTESIAN_POINT ( 'NONE',  ( 0.0000000000000000000, 0.0000000000000000000, 2.000000000000000000 ) ) ;
#155 = DIRECTION ( 'NONE',  ( -1.000000000000000000, 0.0000000000000000000, 0.0000000000000000000 ) ) ;
#156 = CC_DESIGN_PERSON_AND_ORGANIZATION_ASSIGNMENT ( #112, #15, ( #68 ) ) ;
#157 = UNCERTAINTY_MEASURE_WITH_UNIT (LENGTH_MEASURE( 1.000000000000000100E-005 ), #121, 'distance_accuracy_value', 'NONE');
#158 = CIRCLE ( 'NONE', #128, 10.00000000000000000 ) ;
#159 = CARTESIAN_POINT ( 'NONE',  ( 0.0000000000000000000, 0.0000000000000000000, 2.000000000000000000 ) ) ;
#160 = ORIENTED_EDGE ( 'NONE', *, *, #153, .F. ) ;
#161 = PERSON_AND_ORGANIZATION ( #172, #131 ) ;
#162 = COORDINATED_UNIVERSAL_TIME_OFFSET ( 5, 0, .BEHIND. ) ;
#163 = PERSON_AND_ORGANIZATION_ROLE ( 'design_supplier' ) ;
#164 = PRODUCT_DEFINITION_SHAPE ( 'NONE', 'NONE',  #133 ) ;
#165 = VECTOR ( 'NONE', #107, 1000.000000000000000 ) ;
#166 = ORIENTED_EDGE ( 'NONE', *, *, #171, .F. ) ;
#167 = DIRECTION ( 'NONE',  ( 1.000000000000000000, 0.0000000000000000000, 0.0000000000000000000 ) ) ;
#168 = CARTESIAN_POINT ( 'NONE',  ( -10.00000000000000000, 0.0000000000000000000, 2.000000000000000000 ) ) ;
#169 = ORIENTED_EDGE ( 'NONE', *, *, #22, .F. ) ;
#170 = DIRECTION ( 'NONE',  ( 0.0000000000000000000, 0.0000000000000000000, 1.000000000000000000 ) ) ;
#171 = EDGE_CURVE ( 'NONE', #53, #86, #78, .T. ) ;
#172 = PERSON ( 'UNSPECIFIED', 'UNSPECIFIED', 'UNSPECIFIED', ('UNSPECIFIED'), ('UNSPECIFIED'), ('UNSPECIFIED') ) ;
#173 = PERSON_AND_ORGANIZATION ( #172, #131 ) ;
#174 = ORIENTED_EDGE ( 'NONE', *, *, #137, .F. ) ;
#175 = APPROVAL_PERSON_ORGANIZATION ( #60, #30, #132 ) ;
ENDSEC;
END-ISO-10303-21;
