ISO-10303-21;
HEADER;
FILE_DESCRIPTION (( 'STEP AP214' ),
    '1' );
FILE_NAME ('4908-E0W.STEP',
    '2009-12-21T17:15:51',
    ( ' ' ),
    ( ' ' ),
    'SwSTEP 2.0',
    'SolidWorks 2009',
    '' );
FILE_SCHEMA (( 'AUTOMOTIVE_DESIGN' ));
ENDSEC;

DATA;
#1 = EDGE_CURVE ( 'NONE', #83, #75, #90, .T. ) ;
#2 = EDGE_LOOP ( 'NONE', ( #15, #11, #14, #8 ) ) ;
#3 = ORIENTED_EDGE ( 'NONE', *, *, #16, .F. ) ;
#4 = EDGE_CURVE ( 'NONE', #87, #20, #116, .T. ) ;
#5 = EDGE_CURVE ( 'NONE', #48, #21, #92, .T. ) ;
#6 = ORIENTED_EDGE ( 'NONE', *, *, #4, .F. ) ;
#7 = VERTEX_POINT ( 'NONE', #110 ) ;
#8 = ORIENTED_EDGE ( 'NONE', *, *, #9, .F. ) ;
#9 = EDGE_CURVE ( 'NONE', #7, #20, #93, .T. ) ;
#10 = ADVANCED_FACE ( 'NONE', ( #102 ), #147, .T. ) ;
#11 = ORIENTED_EDGE ( 'NONE', *, *, #88, .T. ) ;
#12 = ORIENTED_EDGE ( 'NONE', *, *, #5, .F. ) ;
#13 = ADVANCED_FACE ( 'NONE', ( #131 ), #123, .T. ) ;
#14 = ORIENTED_EDGE ( 'NONE', *, *, #4, .T. ) ;
#15 = ORIENTED_EDGE ( 'NONE', *, *, #16, .T. ) ;
#16 = EDGE_CURVE ( 'NONE', #7, #78, #130, .T. ) ;
#17 = EDGE_CURVE ( 'NONE', #21, #7, #59, .T. ) ;
#18 = EDGE_LOOP ( 'NONE', ( #6, #38, #34, #28 ) ) ;
#19 = ORIENTED_EDGE ( 'NONE', *, *, #17, .F. ) ;
#20 = VERTEX_POINT ( 'NONE', #170 ) ;
#21 = VERTEX_POINT ( 'NONE', #173 ) ;
#22 = ADVANCED_FACE ( 'NONE', ( #166 ), #155, .F. ) ;
#23 = EDGE_CURVE ( 'NONE', #87, #21, #158, .T. ) ;
#24 = EDGE_CURVE ( 'NONE', #75, #39, #180, .T. ) ;
#25 = ORIENTED_EDGE ( 'NONE', *, *, #84, .T. ) ;
#26 = ORIENTED_EDGE ( 'NONE', *, *, #1, .F. ) ;
#27 = ORIENTED_EDGE ( 'NONE', *, *, #77, .F. ) ;
#28 = ORIENTED_EDGE ( 'NONE', *, *, #9, .T. ) ;
#29 = ORIENTED_EDGE ( 'NONE', *, *, #5, .T. ) ;
#30 = ORIENTED_EDGE ( 'NONE', *, *, #88, .F. ) ;
#31 = EDGE_LOOP ( 'NONE', ( #27, #35, #33, #29, #36, #30 ) ) ;
#32 = ADVANCED_FACE ( 'NONE', ( #175 ), #209, .T. ) ;
#33 = ORIENTED_EDGE ( 'NONE', *, *, #46, .T. ) ;
#34 = ORIENTED_EDGE ( 'NONE', *, *, #17, .T. ) ;
#35 = ORIENTED_EDGE ( 'NONE', *, *, #24, .T. ) ;
#36 = ORIENTED_EDGE ( 'NONE', *, *, #23, .F. ) ;
#37 = ORIENTED_EDGE ( 'NONE', *, *, #56, .F. ) ;
#38 = ORIENTED_EDGE ( 'NONE', *, *, #23, .T. ) ;
#39 = VERTEX_POINT ( 'NONE', #191 ) ;
#40 = ORIENTED_EDGE ( 'NONE', *, *, #24, .F. ) ;
#41 = ORIENTED_EDGE ( 'NONE', *, *, #46, .F. ) ;
#42 = EDGE_LOOP ( 'NONE', ( #37, #40, #26, #25 ) ) ;
#43 = ADVANCED_FACE ( 'NONE', ( #208 ), #308, .F. ) ;
#44 = MANIFOLD_SOLID_BREP ( 'NONE', #45 ) ;
#45 = CLOSED_SHELL ( 'NONE', ( #43, #79, #13, #10, #32, #22 ) ) ;
#46 = EDGE_CURVE ( 'NONE', #39, #48, #303, .T. ) ;
#47 = EDGE_LOOP ( 'NONE', ( #41, #51, #74, #85 ) ) ;
#48 = VERTEX_POINT ( 'NONE', #298 ) ;
#49 =( LENGTH_UNIT ( ) NAMED_UNIT ( * ) SI_UNIT ( .MILLI., .METRE. ) );
#50 = MECHANICAL_DESIGN_GEOMETRIC_PRESENTATION_REPRESENTATION (  '', ( #104 ), #65 ) ;
#51 = ORIENTED_EDGE ( 'NONE', *, *, #56, .T. ) ;
#52 = CARTESIAN_POINT ( 'NONE',  ( 0.0000000000000000000, 0.0000000000000000000, 1.506453556687039800 ) ) ;
#53 =( NAMED_UNIT ( * ) SI_UNIT ( $, .STERADIAN. ) SOLID_ANGLE_UNIT ( ) );
#54 =( NAMED_UNIT ( * ) PLANE_ANGLE_UNIT ( ) SI_UNIT ( $, .RADIAN. ) );
#55 = PRESENTATION_LAYER_ASSIGNMENT (  '', '', ( #104 ) ) ;
#56 = EDGE_CURVE ( 'NONE', #39, #89, #296, .T. ) ;
#57 = DIRECTION ( 'NONE',  ( 1.000000000000000000, 0.0000000000000000000, 0.0000000000000000000 ) ) ;
#58 = DIRECTION ( 'NONE',  ( -0.0000000000000000000, -0.0000000000000000000, 1.000000000000000000 ) ) ;
#59 = CIRCLE ( 'NONE', #62, 12.70000000000000100 ) ;
#60 = DIRECTION ( 'NONE',  ( -0.0000000000000000000, -0.0000000000000000000, 1.000000000000000000 ) ) ;
#61 = CARTESIAN_POINT ( 'NONE',  ( 0.0000000000000000000, 0.0000000000000000000, 1.506453556687039800 ) ) ;
#62 = AXIS2_PLACEMENT_3D ( 'NONE', #61, #58, #57 ) ;
#63 =( LENGTH_UNIT ( ) NAMED_UNIT ( * ) SI_UNIT ( .MILLI., .METRE. ) );
#64 = DIRECTION ( 'NONE',  ( 1.000000000000000000, 0.0000000000000000000, 0.0000000000000000000 ) ) ;
#65 =( GEOMETRIC_REPRESENTATION_CONTEXT ( 3 ) GLOBAL_UNCERTAINTY_ASSIGNED_CONTEXT ( ( #66 ) ) GLOBAL_UNIT_ASSIGNED_CONTEXT ( ( #49, #54, #53 ) ) REPRESENTATION_CONTEXT ( 'NONE', 'WORKASPACE' ) );
#66 = UNCERTAINTY_MEASURE_WITH_UNIT (LENGTH_MEASURE( 1.000000000000000100E-005 ), #49, 'distance_accuracy_value', 'NONE');
#67 = UNCERTAINTY_MEASURE_WITH_UNIT (LENGTH_MEASURE( 1.000000000000000100E-005 ), #63, 'distance_accuracy_value', 'NONE');
#68 =( NAMED_UNIT ( * ) SI_UNIT ( $, .STERADIAN. ) SOLID_ANGLE_UNIT ( ) );
#69 =( NAMED_UNIT ( * ) PLANE_ANGLE_UNIT ( ) SI_UNIT ( $, .RADIAN. ) );
#70 =( NAMED_UNIT ( * ) SI_UNIT ( $, .STERADIAN. ) SOLID_ANGLE_UNIT ( ) );
#71 =( GEOMETRIC_REPRESENTATION_CONTEXT ( 3 ) GLOBAL_UNCERTAINTY_ASSIGNED_CONTEXT ( ( #67 ) ) GLOBAL_UNIT_ASSIGNED_CONTEXT ( ( #63, #69, #70 ) ) REPRESENTATION_CONTEXT ( 'NONE', 'WORKASPACE' ) );
#72 =( GEOMETRIC_REPRESENTATION_CONTEXT ( 3 ) GLOBAL_UNCERTAINTY_ASSIGNED_CONTEXT ( ( #73 ) ) GLOBAL_UNIT_ASSIGNED_CONTEXT ( ( #199, #205, #68 ) ) REPRESENTATION_CONTEXT ( 'NONE', 'WORKASPACE' ) );
#73 = UNCERTAINTY_MEASURE_WITH_UNIT (LENGTH_MEASURE( 1.000000000000000100E-005 ), #199, 'distance_accuracy_value', 'NONE');
#74 = ORIENTED_EDGE ( 'NONE', *, *, #84, .F. ) ;
#75 = VERTEX_POINT ( 'NONE', #297 ) ;
#76 = ORIENTED_EDGE ( 'NONE', *, *, #77, .T. ) ;
#77 = EDGE_CURVE ( 'NONE', #75, #78, #259, .T. ) ;
#78 = VERTEX_POINT ( 'NONE', #255 ) ;
#79 = ADVANCED_FACE ( 'NONE', ( #254 ), #238, .T. ) ;
#80 = EDGE_CURVE ( 'NONE', #48, #83, #273, .T. ) ;
#81 = ORIENTED_EDGE ( 'NONE', *, *, #80, .T. ) ;
#82 = EDGE_LOOP ( 'NONE', ( #81, #86, #76, #3, #19, #12 ) ) ;
#83 = VERTEX_POINT ( 'NONE', #268 ) ;
#84 = EDGE_CURVE ( 'NONE', #83, #89, #267, .T. ) ;
#85 = ORIENTED_EDGE ( 'NONE', *, *, #80, .F. ) ;
#86 = ORIENTED_EDGE ( 'NONE', *, *, #1, .T. ) ;
#87 = VERTEX_POINT ( 'NONE', #262 ) ;
#88 = EDGE_CURVE ( 'NONE', #78, #87, #322, .T. ) ;
#89 = VERTEX_POINT ( 'NONE', #318 ) ;
#90 = CIRCLE ( 'NONE', #118, 12.70000000000000100 ) ;
#91 = CARTESIAN_POINT ( 'NONE',  ( 12.70000000000000100, 0.0000000000000000000, 9.721285611123921200 ) ) ;
#92 = LINE ( 'NONE', #91, #112 ) ;
#93 = CIRCLE ( 'NONE', #101, 100.0000000000000100 ) ;
#94 = DIRECTION ( 'NONE',  ( -1.000000000000000000, 1.224606353822377300E-016, 0.0000000000000000000 ) ) ;
#95 = AXIS2_PLACEMENT_3D ( 'NONE', #115, #94, #117 ) ;
#96 = FILL_AREA_STYLE_COLOUR ( '', #97 ) ;
#97 = COLOUR_RGB ( '',0.9568627450980391500, 0.9490196078431372100, 0.9607843137254902200 ) ;
#98 = DIRECTION ( 'NONE',  ( 0.0000000000000000000, 0.0000000000000000000, -1.000000000000000000 ) ) ;
#99 = DIRECTION ( 'NONE',  ( 1.000000000000000000, 0.0000000000000000000, 0.0000000000000000000 ) ) ;
#100 = CARTESIAN_POINT ( 'NONE',  ( 0.0000000000000000000, 0.0000000000000000000, -97.68381814371714700 ) ) ;
#101 = AXIS2_PLACEMENT_3D ( 'NONE', #100, #99, #98 ) ;
#102 = FACE_OUTER_BOUND ( 'NONE', #18, .T. ) ;
#103 = CARTESIAN_POINT ( 'NONE',  ( 0.0000000000000000000, 0.0000000000000000000, -2.316181856282868000 ) ) ;
#104 = STYLED_ITEM ( 'NONE', ( #105 ), #10 ) ;
#105 = PRESENTATION_STYLE_ASSIGNMENT (( #106 ) ) ;
#106 = SURFACE_STYLE_USAGE ( .BOTH. , #107 ) ;
#107 = SURFACE_SIDE_STYLE ('',( #108 ) ) ;
#108 = SURFACE_STYLE_FILL_AREA ( #109 ) ;
#109 = FILL_AREA_STYLE ('',( #96 ) ) ;
#110 = CARTESIAN_POINT ( 'NONE',  ( 0.0000000000000000000, 12.69999999999999200, 1.506453556687037200 ) ) ;
#111 = DIRECTION ( 'NONE',  ( -0.0000000000000000000, -0.0000000000000000000, 1.000000000000000000 ) ) ;
#112 = VECTOR ( 'NONE', #111, 1000.000000000000000 ) ;
#113 = DIRECTION ( 'NONE',  ( -0.0000000000000000000, -0.0000000000000000000, 1.000000000000000000 ) ) ;
#114 = DIRECTION ( 'NONE',  ( 1.000000000000000000, 0.0000000000000000000, 0.0000000000000000000 ) ) ;
#115 = CARTESIAN_POINT ( 'NONE',  ( 0.0000000000000000000, 0.0000000000000000000, -97.68381814371714700 ) ) ;
#116 = CIRCLE ( 'NONE', #95, 100.0000000000000000 ) ;
#117 = DIRECTION ( 'NONE',  ( -1.224606353822377300E-016, -1.000000000000000000, 0.0000000000000000000 ) ) ;
#118 = AXIS2_PLACEMENT_3D ( 'NONE', #103, #113, #114 ) ;
#119 = CARTESIAN_POINT ( 'NONE',  ( 0.0000000000000000000, 0.0000000000000000000, -97.68381814371714700 ) ) ;
#120 = DIRECTION ( 'NONE',  ( 0.0000000000000000000, 1.000000000000000000, 0.0000000000000000000 ) ) ;
#121 = DIRECTION ( 'NONE',  ( -1.000000000000000000, 0.0000000000000000000, 0.0000000000000000000 ) ) ;
#122 = COLOUR_RGB ( '',0.9568627450980391500, 0.9490196078431372100, 0.9607843137254902200 ) ;
#123 = SPHERICAL_SURFACE ( 'NONE', #148, 100.0000000000000000 ) ;
#124 = AXIS2_PLACEMENT_3D ( 'NONE', #119, #135, #133 ) ;
#125 = PRESENTATION_LAYER_ASSIGNMENT (  '', '', ( #134 ) ) ;
#126 = DIRECTION ( 'NONE',  ( 1.000000000000000000, 0.0000000000000000000, 0.0000000000000000000 ) ) ;
#127 = DIRECTION ( 'NONE',  ( -0.0000000000000000000, -0.0000000000000000000, 1.000000000000000000 ) ) ;
#128 = CARTESIAN_POINT ( 'NONE',  ( 0.0000000000000000000, 0.0000000000000000000, 1.506453556687039800 ) ) ;
#129 = AXIS2_PLACEMENT_3D ( 'NONE', #128, #127, #126 ) ;
#130 = CIRCLE ( 'NONE', #129, 12.70000000000000100 ) ;
#131 = FACE_OUTER_BOUND ( 'NONE', #2, .T. ) ;
#132 =( LENGTH_UNIT ( ) NAMED_UNIT ( * ) SI_UNIT ( .MILLI., .METRE. ) );
#133 = DIRECTION ( 'NONE',  ( 0.0000000000000000000, 1.000000000000000000, 0.0000000000000000000 ) ) ;
#134 = STYLED_ITEM ( 'NONE', ( #138 ), #13 ) ;
#135 = DIRECTION ( 'NONE',  ( -1.000000000000000000, 0.0000000000000000000, 0.0000000000000000000 ) ) ;
#136 = MECHANICAL_DESIGN_GEOMETRIC_PRESENTATION_REPRESENTATION (  '', ( #134 ), #146 ) ;
#137 =( NAMED_UNIT ( * ) PLANE_ANGLE_UNIT ( ) SI_UNIT ( $, .RADIAN. ) );
#138 = PRESENTATION_STYLE_ASSIGNMENT (( #139 ) ) ;
#139 = SURFACE_STYLE_USAGE ( .BOTH. , #140 ) ;
#140 = SURFACE_SIDE_STYLE ('',( #144 ) ) ;
#141 = UNCERTAINTY_MEASURE_WITH_UNIT (LENGTH_MEASURE( 1.000000000000000100E-005 ), #132, 'distance_accuracy_value', 'NONE');
#142 =( NAMED_UNIT ( * ) SI_UNIT ( $, .STERADIAN. ) SOLID_ANGLE_UNIT ( ) );
#143 = CARTESIAN_POINT ( 'NONE',  ( 0.0000000000000000000, 0.0000000000000000000, -97.68381814371714700 ) ) ;
#144 = SURFACE_STYLE_FILL_AREA ( #145 ) ;
#145 = FILL_AREA_STYLE ('',( #149 ) ) ;
#146 =( GEOMETRIC_REPRESENTATION_CONTEXT ( 3 ) GLOBAL_UNCERTAINTY_ASSIGNED_CONTEXT ( ( #141 ) ) GLOBAL_UNIT_ASSIGNED_CONTEXT ( ( #132, #137, #142 ) ) REPRESENTATION_CONTEXT ( 'NONE', 'WORKASPACE' ) );
#147 = SPHERICAL_SURFACE ( 'NONE', #124, 100.0000000000000000 ) ;
#148 = AXIS2_PLACEMENT_3D ( 'NONE', #143, #121, #120 ) ;
#149 = FILL_AREA_STYLE_COLOUR ( '', #122 ) ;
#150 = SURFACE_STYLE_USAGE ( .BOTH. , #174 ) ;
#151 = STYLED_ITEM ( 'NONE', ( #169 ), #22 ) ;
#152 = FILL_AREA_STYLE ('',( #164 ) ) ;
#153 = SURFACE_STYLE_FILL_AREA ( #152 ) ;
#154 =( LENGTH_UNIT ( ) NAMED_UNIT ( * ) SI_UNIT ( .MILLI., .METRE. ) );
#155 = SPHERICAL_SURFACE ( 'NONE', #162, 50.21999999999999900 ) ;
#156 = COLOUR_RGB ( '',0.9568627450980391500, 0.9490196078431372100, 0.9607843137254902200 ) ;
#157 = AXIS2_PLACEMENT_3D ( 'NONE', #52, #60, #64 ) ;
#158 = CIRCLE ( 'NONE', #157, 12.70000000000000100 ) ;
#159 = DIRECTION ( 'NONE',  ( 0.0000000000000000000, 1.000000000000000000, 0.0000000000000000000 ) ) ;
#160 = DIRECTION ( 'NONE',  ( -1.000000000000000000, 0.0000000000000000000, 0.0000000000000000000 ) ) ;
#161 = CARTESIAN_POINT ( 'NONE',  ( 0.0000000000000000000, 0.0000000000000000000, -50.90381814371713900 ) ) ;
#162 = AXIS2_PLACEMENT_3D ( 'NONE', #161, #160, #159 ) ;
#163 =( GEOMETRIC_REPRESENTATION_CONTEXT ( 3 ) GLOBAL_UNCERTAINTY_ASSIGNED_CONTEXT ( ( #171 ) ) GLOBAL_UNIT_ASSIGNED_CONTEXT ( ( #154, #168, #165 ) ) REPRESENTATION_CONTEXT ( 'NONE', 'WORKASPACE' ) );
#164 = FILL_AREA_STYLE_COLOUR ( '', #156 ) ;
#165 =( NAMED_UNIT ( * ) SI_UNIT ( $, .STERADIAN. ) SOLID_ANGLE_UNIT ( ) );
#166 = FACE_OUTER_BOUND ( 'NONE', #42, .T. ) ;
#167 = PRESENTATION_LAYER_ASSIGNMENT (  '', '', ( #151 ) ) ;
#168 =( NAMED_UNIT ( * ) PLANE_ANGLE_UNIT ( ) SI_UNIT ( $, .RADIAN. ) );
#169 = PRESENTATION_STYLE_ASSIGNMENT (( #150 ) ) ;
#170 = CARTESIAN_POINT ( 'NONE',  ( 0.0000000000000000000, 6.123031769111886300E-015, 2.316181856282864400 ) ) ;
#171 = UNCERTAINTY_MEASURE_WITH_UNIT (LENGTH_MEASURE( 1.000000000000000100E-005 ), #154, 'distance_accuracy_value', 'NONE');
#172 = MECHANICAL_DESIGN_GEOMETRIC_PRESENTATION_REPRESENTATION (  '', ( #151 ), #163 ) ;
#173 = CARTESIAN_POINT ( 'NONE',  ( 12.70000000000000100, 0.0000000000000000000, 1.506453556687039800 ) ) ;
#174 = SURFACE_SIDE_STYLE ('',( #153 ) ) ;
#175 = FACE_OUTER_BOUND ( 'NONE', #31, .T. ) ;
#176 = AXIS2_PLACEMENT_3D ( 'NONE', #179, #190, #178 ) ;
#177 = COLOUR_RGB ( '',0.9568627450980391500, 0.9490196078431372100, 0.9607843137254902200 ) ;
#178 = DIRECTION ( 'NONE',  ( 1.000000000000000000, 0.0000000000000000000, 0.0000000000000000000 ) ) ;
#179 = CARTESIAN_POINT ( 'NONE',  ( 0.0000000000000000000, 0.0000000000000000000, -2.316181856282868000 ) ) ;
#180 = CIRCLE ( 'NONE', #176, 12.70000000000000100 ) ;
#181 = MECHANICAL_DESIGN_GEOMETRIC_PRESENTATION_REPRESENTATION (  '', ( #183 ), #71 ) ;
#182 = PRESENTATION_LAYER_ASSIGNMENT (  '', '', ( #183 ) ) ;
#183 = STYLED_ITEM ( 'NONE', ( #184 ), #32 ) ;
#184 = PRESENTATION_STYLE_ASSIGNMENT (( #185 ) ) ;
#185 = SURFACE_STYLE_USAGE ( .BOTH. , #186 ) ;
#186 = SURFACE_SIDE_STYLE ('',( #187 ) ) ;
#187 = SURFACE_STYLE_FILL_AREA ( #188 ) ;
#188 = FILL_AREA_STYLE ('',( #189 ) ) ;
#189 = FILL_AREA_STYLE_COLOUR ( '', #177 ) ;
#190 = DIRECTION ( 'NONE',  ( -0.0000000000000000000, -0.0000000000000000000, 1.000000000000000000 ) ) ;
#191 = CARTESIAN_POINT ( 'NONE',  ( -1.555250069354419300E-015, -12.70000000000000100, -2.316181856282862700 ) ) ;
#192 = PRESENTATION_STYLE_ASSIGNMENT (( #193 ) ) ;
#193 = SURFACE_STYLE_USAGE ( .BOTH. , #194 ) ;
#194 = SURFACE_SIDE_STYLE ('',( #195 ) ) ;
#195 = SURFACE_STYLE_FILL_AREA ( #196 ) ;
#196 = FILL_AREA_STYLE ('',( #197 ) ) ;
#197 = FILL_AREA_STYLE_COLOUR ( '', #207 ) ;
#198 = DIRECTION ( 'NONE',  ( -0.0000000000000000000, -0.0000000000000000000, 1.000000000000000000 ) ) ;
#199 =( LENGTH_UNIT ( ) NAMED_UNIT ( * ) SI_UNIT ( .MILLI., .METRE. ) );
#200 = MECHANICAL_DESIGN_GEOMETRIC_PRESENTATION_REPRESENTATION (  '', ( #202 ), #72 ) ;
#201 = PRESENTATION_LAYER_ASSIGNMENT (  '', '', ( #202 ) ) ;
#202 = STYLED_ITEM ( 'NONE', ( #192 ), #43 ) ;
#203 = AXIS2_PLACEMENT_3D ( 'NONE', #206, #198, #204 ) ;
#204 = DIRECTION ( 'NONE',  ( 1.000000000000000000, 0.0000000000000000000, 0.0000000000000000000 ) ) ;
#205 =( NAMED_UNIT ( * ) PLANE_ANGLE_UNIT ( ) SI_UNIT ( $, .RADIAN. ) );
#206 = CARTESIAN_POINT ( 'NONE',  ( 0.0000000000000000000, 0.0000000000000000000, 9.721285611123921200 ) ) ;
#207 = COLOUR_RGB ( '',0.9568627450980391500, 0.9490196078431372100, 0.9607843137254902200 ) ;
#208 = FACE_OUTER_BOUND ( 'NONE', #47, .T. ) ;
#209 = CYLINDRICAL_SURFACE ( 'NONE', #203, 12.70000000000000100 ) ;
#210 = UNCERTAINTY_MEASURE_WITH_UNIT (LENGTH_MEASURE( 1.000000000000000100E-005 ), #213, 'distance_accuracy_value', 'NONE');
#211 =( NAMED_UNIT ( * ) SI_UNIT ( $, .STERADIAN. ) SOLID_ANGLE_UNIT ( ) );
#212 =( NAMED_UNIT ( * ) PLANE_ANGLE_UNIT ( ) SI_UNIT ( $, .RADIAN. ) );
#213 =( LENGTH_UNIT ( ) NAMED_UNIT ( * ) SI_UNIT ( .MILLI., .METRE. ) );
#214 = MECHANICAL_DESIGN_GEOMETRIC_PRESENTATION_REPRESENTATION (  '', ( #216 ), #281 ) ;
#215 = PRESENTATION_LAYER_ASSIGNMENT (  '', '', ( #216 ) ) ;
#216 = STYLED_ITEM ( 'NONE', ( #217 ), #225 ) ;
#217 = PRESENTATION_STYLE_ASSIGNMENT (( #218 ) ) ;
#218 = SURFACE_STYLE_USAGE ( .BOTH. , #219 ) ;
#219 = SURFACE_SIDE_STYLE ('',( #220 ) ) ;
#220 = SURFACE_STYLE_FILL_AREA ( #221 ) ;
#221 = FILL_AREA_STYLE ('',( #222 ) ) ;
#222 = FILL_AREA_STYLE_COLOUR ( '', #223 ) ;
#223 = COLOUR_RGB ( '',0.7960784313725489700, 0.8235294117647058400, 0.9372549019607843100 ) ;
#224 = APPLICATION_CONTEXT ( 'automotive_design' ) ;
#225 = ADVANCED_BREP_SHAPE_REPRESENTATION ( '4908-E0W', ( #44, #280 ), #226 ) ;
#226 =( GEOMETRIC_REPRESENTATION_CONTEXT ( 3 ) GLOBAL_UNCERTAINTY_ASSIGNED_CONTEXT ( ( #227 ) ) GLOBAL_UNIT_ASSIGNED_CONTEXT ( ( #316, #229, #228 ) ) REPRESENTATION_CONTEXT ( 'NONE', 'WORKASPACE' ) );
#227 = UNCERTAINTY_MEASURE_WITH_UNIT (LENGTH_MEASURE( 1.000000000000000100E-005 ), #316, 'distance_accuracy_value', 'NONE');
#228 =( NAMED_UNIT ( * ) SI_UNIT ( $, .STERADIAN. ) SOLID_ANGLE_UNIT ( ) );
#229 =( NAMED_UNIT ( * ) PLANE_ANGLE_UNIT ( ) SI_UNIT ( $, .RADIAN. ) );
#230 = PRESENTATION_LAYER_ASSIGNMENT (  '', '', ( #231 ) ) ;
#231 = STYLED_ITEM ( 'NONE', ( #232 ), #44 ) ;
#232 = PRESENTATION_STYLE_ASSIGNMENT (( #233 ) ) ;
#233 = SURFACE_STYLE_USAGE ( .BOTH. , #275 ) ;
#234 = DIRECTION ( 'NONE',  ( 1.000000000000000000, 0.0000000000000000000, 0.0000000000000000000 ) ) ;
#235 = DIRECTION ( 'NONE',  ( -0.0000000000000000000, -0.0000000000000000000, 1.000000000000000000 ) ) ;
#236 = CARTESIAN_POINT ( 'NONE',  ( 0.0000000000000000000, 0.0000000000000000000, 9.721285611123921200 ) ) ;
#237 = AXIS2_PLACEMENT_3D ( 'NONE', #236, #235, #234 ) ;
#238 = CYLINDRICAL_SURFACE ( 'NONE', #237, 12.70000000000000100 ) ;
#239 =( GEOMETRIC_REPRESENTATION_CONTEXT ( 3 ) GLOBAL_UNCERTAINTY_ASSIGNED_CONTEXT ( ( #240 ) ) GLOBAL_UNIT_ASSIGNED_CONTEXT ( ( #243, #242, #241 ) ) REPRESENTATION_CONTEXT ( 'NONE', 'WORKASPACE' ) );
#240 = UNCERTAINTY_MEASURE_WITH_UNIT (LENGTH_MEASURE( 1.000000000000000100E-005 ), #243, 'distance_accuracy_value', 'NONE');
#241 =( NAMED_UNIT ( * ) SI_UNIT ( $, .STERADIAN. ) SOLID_ANGLE_UNIT ( ) );
#242 =( NAMED_UNIT ( * ) PLANE_ANGLE_UNIT ( ) SI_UNIT ( $, .RADIAN. ) );
#243 =( LENGTH_UNIT ( ) NAMED_UNIT ( * ) SI_UNIT ( .MILLI., .METRE. ) );
#244 = MECHANICAL_DESIGN_GEOMETRIC_PRESENTATION_REPRESENTATION (  '', ( #246 ), #239 ) ;
#245 = PRESENTATION_LAYER_ASSIGNMENT (  '', '', ( #246 ) ) ;
#246 = STYLED_ITEM ( 'NONE', ( #247 ), #79 ) ;
#247 = PRESENTATION_STYLE_ASSIGNMENT (( #248 ) ) ;
#248 = SURFACE_STYLE_USAGE ( .BOTH. , #249 ) ;
#249 = SURFACE_SIDE_STYLE ('',( #250 ) ) ;
#250 = SURFACE_STYLE_FILL_AREA ( #251 ) ;
#251 = FILL_AREA_STYLE ('',( #252 ) ) ;
#252 = FILL_AREA_STYLE_COLOUR ( '', #253 ) ;
#253 = COLOUR_RGB ( '',0.9568627450980391500, 0.9490196078431372100, 0.9607843137254902200 ) ;
#254 = FACE_OUTER_BOUND ( 'NONE', #82, .T. ) ;
#255 = CARTESIAN_POINT ( 'NONE',  ( -12.70000000000000100, 1.555250069354419300E-015, 1.506453556687039800 ) ) ;
#256 = DIRECTION ( 'NONE',  ( -0.0000000000000000000, -0.0000000000000000000, 1.000000000000000000 ) ) ;
#257 = VECTOR ( 'NONE', #256, 1000.000000000000000 ) ;
#258 = CARTESIAN_POINT ( 'NONE',  ( -12.70000000000000100, 1.555250069354419300E-015, 9.721285611123921200 ) ) ;
#259 = LINE ( 'NONE', #258, #257 ) ;
#260 = AXIS2_PLACEMENT_3D ( 'NONE', #307, #315, #274 ) ;
#261 = CARTESIAN_POINT ( 'NONE',  ( 0.0000000000000000000, 0.0000000000000000000, 1.506453556687039800 ) ) ;
#262 = CARTESIAN_POINT ( 'NONE',  ( -1.555250069354418500E-015, -12.69999999999999200, 1.506453556687037200 ) ) ;
#263 = DIRECTION ( 'NONE',  ( 0.0000000000000000000, 0.0000000000000000000, -1.000000000000000000 ) ) ;
#264 = DIRECTION ( 'NONE',  ( 1.000000000000000000, -0.0000000000000000000, 0.0000000000000000000 ) ) ;
#265 = CARTESIAN_POINT ( 'NONE',  ( 0.0000000000000000000, 0.0000000000000000000, -50.90381814371713900 ) ) ;
#266 = AXIS2_PLACEMENT_3D ( 'NONE', #265, #264, #263 ) ;
#267 = CIRCLE ( 'NONE', #266, 50.21999999999999900 ) ;
#268 = CARTESIAN_POINT ( 'NONE',  ( 0.0000000000000000000, 12.70000000000000100, -2.316181856282862700 ) ) ;
#269 = DIRECTION ( 'NONE',  ( 1.000000000000000000, 0.0000000000000000000, 0.0000000000000000000 ) ) ;
#270 = DIRECTION ( 'NONE',  ( -0.0000000000000000000, -0.0000000000000000000, 1.000000000000000000 ) ) ;
#271 = CARTESIAN_POINT ( 'NONE',  ( 0.0000000000000000000, 0.0000000000000000000, -2.316181856282868000 ) ) ;
#272 = AXIS2_PLACEMENT_3D ( 'NONE', #271, #270, #269 ) ;
#273 = CIRCLE ( 'NONE', #272, 12.70000000000000100 ) ;
#274 = DIRECTION ( 'NONE',  ( 0.0000000000000000000, 1.000000000000000000, 0.0000000000000000000 ) ) ;
#275 = SURFACE_SIDE_STYLE ('',( #276 ) ) ;
#276 = SURFACE_STYLE_FILL_AREA ( #277 ) ;
#277 = FILL_AREA_STYLE ('',( #312 ) ) ;
#278 = DIRECTION ( 'NONE',  ( 0.0000000000000000000, 0.0000000000000000000, 1.000000000000000000 ) ) ;
#279 = DIRECTION ( 'NONE',  ( 1.000000000000000000, 0.0000000000000000000, 0.0000000000000000000 ) ) ;
#280 = AXIS2_PLACEMENT_3D ( 'NONE', #317, #278, #279 ) ;
#281 =( GEOMETRIC_REPRESENTATION_CONTEXT ( 3 ) GLOBAL_UNCERTAINTY_ASSIGNED_CONTEXT ( ( #210 ) ) GLOBAL_UNIT_ASSIGNED_CONTEXT ( ( #213, #212, #211 ) ) REPRESENTATION_CONTEXT ( 'NONE', 'WORKASPACE' ) );
#282 = PRODUCT_RELATED_PRODUCT_CATEGORY ( 'part', '', ( #289 ) ) ;
#283 = PRODUCT_DEFINITION_FORMATION_WITH_SPECIFIED_SOURCE ( 'ANY', '', #289, .NOT_KNOWN. ) ;
#284 = PRODUCT_DEFINITION ( 'UNKNOWN', '', #283, #285 ) ;
#285 = PRODUCT_DEFINITION_CONTEXT ( 'detailed design', #287, 'design' ) ;
#286 = APPLICATION_PROTOCOL_DEFINITION ( 'draft international standard', 'automotive_design', 1998, #287 ) ;
#287 = APPLICATION_CONTEXT ( 'automotive_design' ) ;
#288 = SHAPE_DEFINITION_REPRESENTATION ( #305, #225 ) ;
#289 = PRODUCT ( '4908-E0W', '4908-E0W', '', ( #290 ) ) ;
#290 = PRODUCT_CONTEXT ( 'NONE', #224, 'mechanical' ) ;
#291 = APPLICATION_PROTOCOL_DEFINITION ( 'draft international standard', 'automotive_design', 1998, #224 ) ;
#292 = DIRECTION ( 'NONE',  ( -1.224606353822377300E-016, -1.000000000000000000, 0.0000000000000000000 ) ) ;
#293 = DIRECTION ( 'NONE',  ( -1.000000000000000000, 1.224606353822377300E-016, 0.0000000000000000000 ) ) ;
#294 = CARTESIAN_POINT ( 'NONE',  ( 0.0000000000000000000, 0.0000000000000000000, -50.90381814371713900 ) ) ;
#295 = AXIS2_PLACEMENT_3D ( 'NONE', #294, #293, #292 ) ;
#296 = CIRCLE ( 'NONE', #295, 50.21999999999999900 ) ;
#297 = CARTESIAN_POINT ( 'NONE',  ( -12.70000000000000100, 1.555250069354419300E-015, -2.316181856282868000 ) ) ;
#298 = CARTESIAN_POINT ( 'NONE',  ( 12.70000000000000100, 0.0000000000000000000, -2.316181856282868000 ) ) ;
#299 = DIRECTION ( 'NONE',  ( 1.000000000000000000, 0.0000000000000000000, 0.0000000000000000000 ) ) ;
#300 = DIRECTION ( 'NONE',  ( -0.0000000000000000000, -0.0000000000000000000, 1.000000000000000000 ) ) ;
#301 = CARTESIAN_POINT ( 'NONE',  ( 0.0000000000000000000, 0.0000000000000000000, -2.316181856282868000 ) ) ;
#302 = AXIS2_PLACEMENT_3D ( 'NONE', #301, #300, #299 ) ;
#303 = CIRCLE ( 'NONE', #302, 12.70000000000000100 ) ;
#304 =( GEOMETRIC_REPRESENTATION_CONTEXT ( 3 ) GLOBAL_UNCERTAINTY_ASSIGNED_CONTEXT ( ( #309 ) ) GLOBAL_UNIT_ASSIGNED_CONTEXT ( ( #313, #311, #310 ) ) REPRESENTATION_CONTEXT ( 'NONE', 'WORKASPACE' ) );
#305 = PRODUCT_DEFINITION_SHAPE ( 'NONE', 'NONE',  #284 ) ;
#306 = COLOUR_RGB ( '',0.7960784313725489700, 0.8235294117647058400, 0.9372549019607843100 ) ;
#307 = CARTESIAN_POINT ( 'NONE',  ( 0.0000000000000000000, 0.0000000000000000000, -50.90381814371713900 ) ) ;
#308 = SPHERICAL_SURFACE ( 'NONE', #260, 50.21999999999999900 ) ;
#309 = UNCERTAINTY_MEASURE_WITH_UNIT (LENGTH_MEASURE( 1.000000000000000100E-005 ), #313, 'distance_accuracy_value', 'NONE');
#310 =( NAMED_UNIT ( * ) SI_UNIT ( $, .STERADIAN. ) SOLID_ANGLE_UNIT ( ) );
#311 =( NAMED_UNIT ( * ) PLANE_ANGLE_UNIT ( ) SI_UNIT ( $, .RADIAN. ) );
#312 = FILL_AREA_STYLE_COLOUR ( '', #306 ) ;
#313 =( LENGTH_UNIT ( ) NAMED_UNIT ( * ) SI_UNIT ( .MILLI., .METRE. ) );
#314 = MECHANICAL_DESIGN_GEOMETRIC_PRESENTATION_REPRESENTATION (  '', ( #231 ), #304 ) ;
#315 = DIRECTION ( 'NONE',  ( -1.000000000000000000, 0.0000000000000000000, 0.0000000000000000000 ) ) ;
#316 =( LENGTH_UNIT ( ) NAMED_UNIT ( * ) SI_UNIT ( .MILLI., .METRE. ) );
#317 = CARTESIAN_POINT ( 'NONE',  ( 0.0000000000000000000, 0.0000000000000000000, 0.0000000000000000000 ) ) ;
#318 = CARTESIAN_POINT ( 'NONE',  ( 0.0000000000000000000, 3.074986554447989200E-015, -0.6838181437171381200 ) ) ;
#319 = DIRECTION ( 'NONE',  ( 1.000000000000000000, 0.0000000000000000000, 0.0000000000000000000 ) ) ;
#320 = DIRECTION ( 'NONE',  ( -0.0000000000000000000, -0.0000000000000000000, 1.000000000000000000 ) ) ;
#321 = AXIS2_PLACEMENT_3D ( 'NONE', #261, #320, #319 ) ;
#322 = CIRCLE ( 'NONE', #321, 12.70000000000000100 ) ;
ENDSEC;
END-ISO-10303-21;
