ISO-10303-21;
HEADER;
FILE_DESCRIPTION (( 'STEP AP203' ),
    '1' );
FILE_NAME ('step_35951.step',
    '2017-05-22T20:26:35',
    ( '' ),
    ( '' ),
    'SwSTEP 2.0',
    'SolidWorks 2016',
    '' );
FILE_SCHEMA (( 'CONFIG_CONTROL_DESIGN' ));
ENDSEC;

DATA;
#1 = APPROVAL_STATUS ( 'not_yet_approved' ) ;
#2 = DIRECTION ( 'NONE',  ( 0.0000000000000000000, 0.0000000000000000000, 1.000000000000000000 ) ) ;
#3 = DIRECTION ( 'NONE',  ( -1.000000000000000000, 0.0000000000000000000, 0.0000000000000000000 ) ) ;
#4 =( LENGTH_UNIT ( ) NAMED_UNIT ( * ) SI_UNIT ( .MILLI., .METRE. ) );
#5 = PERSON_AND_ORGANIZATION_ROLE ( 'classification_officer' ) ;
#6 = DIRECTION ( 'NONE',  ( 0.0000000000000000000, 0.0000000000000000000, 1.000000000000000000 ) ) ;
#7 = APPROVAL_ROLE ( '' ) ;
#8 = DIRECTION ( 'NONE',  ( 1.000000000000000000, 0.0000000000000000000, 0.0000000000000000000 ) ) ;
#9 = CARTESIAN_POINT ( 'NONE',  ( 0.0000000000000000000, 0.0000000000000000000, 0.0000000000000000000 ) ) ;
#10 = CARTESIAN_POINT ( 'NONE',  ( 0.0000000000000000000, 0.0000000000000000000, 0.0000000000000000000 ) ) ;
#11 = PRODUCT_RELATED_PRODUCT_CATEGORY ( 'detail', '', ( #55 ) ) ;
#12 = SHAPE_DEFINITION_REPRESENTATION ( #110, #145 ) ;
#13 = CC_DESIGN_SECURITY_CLASSIFICATION ( #43, ( #101 ) ) ;
#14 = CARTESIAN_POINT ( 'NONE',  ( 0.0000000000000000000, 0.0000000000000000000, 1.000000000000000000 ) ) ;
#15 = LINE ( 'NONE', #165, #139 ) ;
#16 = CC_DESIGN_APPROVAL ( #19, ( #43 ) ) ;
#17 = DIRECTION ( 'NONE',  ( -0.0000000000000000000, -0.0000000000000000000, -1.000000000000000000 ) ) ;
#18 = CARTESIAN_POINT ( 'NONE',  ( -12.50000000000000000, 0.0000000000000000000, 1.000000000000000000 ) ) ;
#19 = APPROVAL ( #174, 'UNSPECIFIED' ) ;
#20 = LOCAL_TIME ( 13, 26, 35.00000000000000000, #99 ) ;
#21 = FACE_OUTER_BOUND ( 'NONE', #136, .T. ) ;
#22 = CC_DESIGN_DATE_AND_TIME_ASSIGNMENT ( #53, #44, ( #43 ) ) ;
#23 = ADVANCED_FACE ( 'NONE', ( #21 ), #140, .T. ) ;
#24 = PERSON_AND_ORGANIZATION ( #169, #59 ) ;
#25 = FACE_OUTER_BOUND ( 'NONE', #149, .T. ) ;
#26 = ADVANCED_FACE ( 'NONE', ( #138 ), #107, .T. ) ;
#27 = EDGE_CURVE ( 'NONE', #113, #118, #168, .T. ) ;
#28 = ADVANCED_FACE ( 'NONE', ( #121 ), #175, .F. ) ;
#29 = DATE_TIME_ROLE ( 'creation_date' ) ;
#30 = AXIS2_PLACEMENT_3D ( 'NONE', #167, #66, #133 ) ;
#31 = DIRECTION ( 'NONE',  ( 0.0000000000000000000, 0.0000000000000000000, 1.000000000000000000 ) ) ;
#32 = DIRECTION ( 'NONE',  ( 1.000000000000000000, 0.0000000000000000000, 0.0000000000000000000 ) ) ;
#33 = PLANE ( 'NONE',  #68 ) ;
#34 = COORDINATED_UNIVERSAL_TIME_OFFSET ( 7, 0, .BEHIND. ) ;
#35 = ADVANCED_FACE ( 'NONE', ( #25 ), #33, .T. ) ;
#36 = CC_DESIGN_PERSON_AND_ORGANIZATION_ASSIGNMENT ( #54, #5, ( #43 ) ) ;
#37 = CALENDAR_DATE ( 2017, 22, 5 ) ;
#38 = PERSON_AND_ORGANIZATION ( #169, #59 ) ;
#39 = AXIS2_PLACEMENT_3D ( 'NONE', #69, #94, #87 ) ;
#40 = PERSON_AND_ORGANIZATION ( #169, #59 ) ;
#41 = MANIFOLD_SOLID_BREP ( 'Boss-Extrude1', #119 ) ;
#42 = APPROVAL_PERSON_ORGANIZATION ( #146, #19, #85 ) ;
#43 = SECURITY_CLASSIFICATION ( '', '', #128 ) ;
#44 = DATE_TIME_ROLE ( 'classification_date' ) ;
#45 = AXIS2_PLACEMENT_3D ( 'NONE', #10, #93, #32 ) ;
#46 = APPROVAL_DATE_TIME ( #98, #109 ) ;
#47 = CALENDAR_DATE ( 2017, 22, 5 ) ;
#48 = DIRECTION ( 'NONE',  ( 1.000000000000000000, 0.0000000000000000000, 0.0000000000000000000 ) ) ;
#49 = DATE_AND_TIME ( #47, #20 ) ;
#50 = CC_DESIGN_PERSON_AND_ORGANIZATION_ASSIGNMENT ( #24, #171, ( #101 ) ) ;
#51 = CALENDAR_DATE ( 2017, 22, 5 ) ;
#52 = CC_DESIGN_PERSON_AND_ORGANIZATION_ASSIGNMENT ( #144, #160, ( #101 ) ) ;
#53 = DATE_AND_TIME ( #51, #172 ) ;
#54 = PERSON_AND_ORGANIZATION ( #169, #59 ) ;
#55 = PRODUCT ( 'step_35951', 'step_35951', '', ( #152 ) ) ;
#56 = CC_DESIGN_APPROVAL ( #109, ( #101 ) ) ;
#57 = COORDINATED_UNIVERSAL_TIME_OFFSET ( 7, 0, .BEHIND. ) ;
#58 = PERSON_AND_ORGANIZATION_ROLE ( 'design_owner' ) ;
#59 = ORGANIZATION ( 'UNSPECIFIED', 'UNSPECIFIED', '' ) ;
#60 =( NAMED_UNIT ( * ) SI_UNIT ( $, .STERADIAN. ) SOLID_ANGLE_UNIT ( ) );
#61 = LOCAL_TIME ( 13, 26, 35.00000000000000000, #77 ) ;
#62 = DIRECTION ( 'NONE',  ( -0.0000000000000000000, -0.0000000000000000000, -1.000000000000000000 ) ) ;
#63 = APPLICATION_CONTEXT ( 'configuration controlled 3d designs of mechanical parts and assemblies' ) ;
#64 = DIRECTION ( 'NONE',  ( -0.0000000000000000000, -0.0000000000000000000, -1.000000000000000000 ) ) ;
#65 = APPROVAL_PERSON_ORGANIZATION ( #38, #109, #96 ) ;
#66 = DIRECTION ( 'NONE',  ( 0.0000000000000000000, 0.0000000000000000000, 1.000000000000000000 ) ) ;
#67 = LOCAL_TIME ( 13, 26, 35.00000000000000000, #34 ) ;
#68 = AXIS2_PLACEMENT_3D ( 'NONE', #95, #6, #162 ) ;
#69 = CARTESIAN_POINT ( 'NONE',  ( 0.0000000000000000000, 0.0000000000000000000, 1.000000000000000000 ) ) ;
#70 = APPROVAL_DATE_TIME ( #75, #117 ) ;
#71 = CALENDAR_DATE ( 2017, 22, 5 ) ;
#72 = PERSON_AND_ORGANIZATION_ROLE ( 'creator' ) ;
#73 = LOCAL_TIME ( 13, 26, 35.00000000000000000, #79 ) ;
#74 = CC_DESIGN_PERSON_AND_ORGANIZATION_ASSIGNMENT ( #76, #72, ( #90 ) ) ;
#75 = DATE_AND_TIME ( #71, #73 ) ;
#76 = PERSON_AND_ORGANIZATION ( #169, #59 ) ;
#77 = COORDINATED_UNIVERSAL_TIME_OFFSET ( 7, 0, .BEHIND. ) ;
#78 = CC_DESIGN_APPROVAL ( #117, ( #90 ) ) ;
#79 = COORDINATED_UNIVERSAL_TIME_OFFSET ( 7, 0, .BEHIND. ) ;
#80 = AXIS2_PLACEMENT_3D ( 'NONE', #9, #82, #161 ) ;
#81 = CARTESIAN_POINT ( 'NONE',  ( -12.50000000000000000, 0.0000000000000000000, 0.0000000000000000000 ) ) ;
#82 = DIRECTION ( 'NONE',  ( 0.0000000000000000000, 0.0000000000000000000, 1.000000000000000000 ) ) ;
#83 = CARTESIAN_POINT ( 'NONE',  ( 0.0000000000000000000, 0.0000000000000000000, 1.000000000000000000 ) ) ;
#84 = DIRECTION ( 'NONE',  ( -0.0000000000000000000, -0.0000000000000000000, -1.000000000000000000 ) ) ;
#85 = APPROVAL_ROLE ( '' ) ;
#86 = ORIENTED_EDGE ( 'NONE', *, *, #148, .T. ) ;
#87 = DIRECTION ( 'NONE',  ( 1.000000000000000000, 0.0000000000000000000, 0.0000000000000000000 ) ) ;
#88 = DIRECTION ( 'NONE',  ( -1.000000000000000000, 0.0000000000000000000, 0.0000000000000000000 ) ) ;
#89 = CALENDAR_DATE ( 2017, 22, 5 ) ;
#90 = PRODUCT_DEFINITION ( 'UNKNOWN', '', #101, #126 ) ;
#91 = APPROVAL_STATUS ( 'not_yet_approved' ) ;
#92 = CARTESIAN_POINT ( 'NONE',  ( 0.0000000000000000000, 0.0000000000000000000, 0.0000000000000000000 ) ) ;
#93 = DIRECTION ( 'NONE',  ( 0.0000000000000000000, 0.0000000000000000000, 1.000000000000000000 ) ) ;
#94 = DIRECTION ( 'NONE',  ( 0.0000000000000000000, 0.0000000000000000000, 1.000000000000000000 ) ) ;
#95 = CARTESIAN_POINT ( 'NONE',  ( 0.0000000000000000000, 0.0000000000000000000, 1.000000000000000000 ) ) ;
#96 = APPROVAL_ROLE ( '' ) ;
#97 = CIRCLE ( 'NONE', #30, 12.50000000000000000 ) ;
#98 = DATE_AND_TIME ( #37, #61 ) ;
#99 = COORDINATED_UNIVERSAL_TIME_OFFSET ( 7, 0, .BEHIND. ) ;
#100 = VERTEX_POINT ( 'NONE', #81 ) ;
#101 = PRODUCT_DEFINITION_FORMATION_WITH_SPECIFIED_SOURCE ( 'ANY', '', #55, .NOT_KNOWN. ) ;
#102 = ORIENTED_EDGE ( 'NONE', *, *, #27, .F. ) ;
#103 = UNCERTAINTY_MEASURE_WITH_UNIT (LENGTH_MEASURE( 1.000000000000000100E-005 ), #4, 'distance_accuracy_value', 'NONE');
#104 = CIRCLE ( 'NONE', #45, 12.50000000000000000 ) ;
#105 =( NAMED_UNIT ( * ) PLANE_ANGLE_UNIT ( ) SI_UNIT ( $, .RADIAN. ) );
#106 = CC_DESIGN_DATE_AND_TIME_ASSIGNMENT ( #129, #29, ( #90 ) ) ;
#107 = CYLINDRICAL_SURFACE ( 'NONE', #125, 12.50000000000000000 ) ;
#108 = CARTESIAN_POINT ( 'NONE',  ( 0.0000000000000000000, 0.0000000000000000000, 1.000000000000000000 ) ) ;
#109 = APPROVAL ( #91, 'UNSPECIFIED' ) ;
#110 = PRODUCT_DEFINITION_SHAPE ( 'NONE', 'NONE',  #90 ) ;
#111 = AXIS2_PLACEMENT_3D ( 'NONE', #92, #31, #8 ) ;
#112 = EDGE_LOOP ( 'NONE', ( #154, #115 ) ) ;
#113 = VERTEX_POINT ( 'NONE', #156 ) ;
#114 = ORIENTED_EDGE ( 'NONE', *, *, #147, .F. ) ;
#115 = ORIENTED_EDGE ( 'NONE', *, *, #159, .F. ) ;
#116 = ORIENTED_EDGE ( 'NONE', *, *, #143, .F. ) ;
#117 = APPROVAL ( #1, 'UNSPECIFIED' ) ;
#118 = VERTEX_POINT ( 'NONE', #18 ) ;
#119 = CLOSED_SHELL ( 'NONE', ( #26, #23, #35, #28 ) ) ;
#120 = EDGE_CURVE ( 'NONE', #100, #134, #104, .T. ) ;
#121 = FACE_OUTER_BOUND ( 'NONE', #112, .T. ) ;
#122 = CARTESIAN_POINT ( 'NONE',  ( -12.50000000000000000, 0.0000000000000000000, 1.000000000000000000 ) ) ;
#123 = APPLICATION_PROTOCOL_DEFINITION ( 'international standard', 'config_control_design', 1994, #63 ) ;
#124 = APPLICATION_CONTEXT ( 'configuration controlled 3d designs of mechanical parts and assemblies' ) ;
#125 = AXIS2_PLACEMENT_3D ( 'NONE', #83, #62, #3 ) ;
#126 = DESIGN_CONTEXT ( 'detailed design', #124, 'design' ) ;
#127 = ORIENTED_EDGE ( 'NONE', *, *, #159, .T. ) ;
#128 = SECURITY_CLASSIFICATION_LEVEL ( 'unclassified' ) ;
#129 = DATE_AND_TIME ( #89, #67 ) ;
#130 = EDGE_LOOP ( 'NONE', ( #102, #170, #127, #164 ) ) ;
#131 = ORIENTED_EDGE ( 'NONE', *, *, #27, .T. ) ;
#132 = ORIENTED_EDGE ( 'NONE', *, *, #120, .T. ) ;
#133 = DIRECTION ( 'NONE',  ( 1.000000000000000000, 0.0000000000000000000, 0.0000000000000000000 ) ) ;
#134 = VERTEX_POINT ( 'NONE', #155 ) ;
#135 = ORIENTED_EDGE ( 'NONE', *, *, #143, .T. ) ;
#136 = EDGE_LOOP ( 'NONE', ( #114, #116, #86, #132 ) ) ;
#137 = APPLICATION_PROTOCOL_DEFINITION ( 'international standard', 'config_control_design', 1994, #124 ) ;
#138 = FACE_OUTER_BOUND ( 'NONE', #130, .T. ) ;
#139 = VECTOR ( 'NONE', #64, 1000.000000000000000 ) ;
#140 = CYLINDRICAL_SURFACE ( 'NONE', #166, 12.50000000000000000 ) ;
#141 = CIRCLE ( 'NONE', #39, 12.50000000000000000 ) ;
#142 = VECTOR ( 'NONE', #17, 1000.000000000000000 ) ;
#143 = EDGE_CURVE ( 'NONE', #118, #113, #141, .T. ) ;
#144 = PERSON_AND_ORGANIZATION ( #169, #59 ) ;
#145 = ADVANCED_BREP_SHAPE_REPRESENTATION ( 'step_35951', ( #41, #111 ), #157 ) ;
#146 = PERSON_AND_ORGANIZATION ( #169, #59 ) ;
#147 = EDGE_CURVE ( 'NONE', #113, #134, #15, .T. ) ;
#148 = EDGE_CURVE ( 'NONE', #118, #100, #158, .T. ) ;
#149 = EDGE_LOOP ( 'NONE', ( #135, #131 ) ) ;
#150 = APPROVAL_PERSON_ORGANIZATION ( #40, #117, #7 ) ;
#151 = AXIS2_PLACEMENT_3D ( 'NONE', #108, #2, #48 ) ;
#152 = MECHANICAL_CONTEXT ( 'NONE', #63, 'mechanical' ) ;
#153 = CC_DESIGN_PERSON_AND_ORGANIZATION_ASSIGNMENT ( #163, #58, ( #55 ) ) ;
#154 = ORIENTED_EDGE ( 'NONE', *, *, #120, .F. ) ;
#155 = CARTESIAN_POINT ( 'NONE',  ( 12.50000000000000000, 1.530808498934191500E-015, 0.0000000000000000000 ) ) ;
#156 = CARTESIAN_POINT ( 'NONE',  ( 12.50000000000000000, 1.530808498934191500E-015, 1.000000000000000000 ) ) ;
#157 =( GEOMETRIC_REPRESENTATION_CONTEXT ( 3 ) GLOBAL_UNCERTAINTY_ASSIGNED_CONTEXT ( ( #103 ) ) GLOBAL_UNIT_ASSIGNED_CONTEXT ( ( #4, #105, #60 ) ) REPRESENTATION_CONTEXT ( 'NONE', 'WORKASPACE' ) );
#158 = LINE ( 'NONE', #122, #142 ) ;
#159 = EDGE_CURVE ( 'NONE', #134, #100, #97, .T. ) ;
#160 = PERSON_AND_ORGANIZATION_ROLE ( 'creator' ) ;
#161 = DIRECTION ( 'NONE',  ( 1.000000000000000000, 0.0000000000000000000, -0.0000000000000000000 ) ) ;
#162 = DIRECTION ( 'NONE',  ( 1.000000000000000000, 0.0000000000000000000, -0.0000000000000000000 ) ) ;
#163 = PERSON_AND_ORGANIZATION ( #169, #59 ) ;
#164 = ORIENTED_EDGE ( 'NONE', *, *, #148, .F. ) ;
#165 = CARTESIAN_POINT ( 'NONE',  ( 12.50000000000000000, 1.530808498934191500E-015, 1.000000000000000000 ) ) ;
#166 = AXIS2_PLACEMENT_3D ( 'NONE', #14, #84, #88 ) ;
#167 = CARTESIAN_POINT ( 'NONE',  ( 0.0000000000000000000, 0.0000000000000000000, 0.0000000000000000000 ) ) ;
#168 = CIRCLE ( 'NONE', #151, 12.50000000000000000 ) ;
#169 = PERSON ( 'UNSPECIFIED', 'UNSPECIFIED', 'UNSPECIFIED', ('UNSPECIFIED'), ('UNSPECIFIED'), ('UNSPECIFIED') ) ;
#170 = ORIENTED_EDGE ( 'NONE', *, *, #147, .T. ) ;
#171 = PERSON_AND_ORGANIZATION_ROLE ( 'design_supplier' ) ;
#172 = LOCAL_TIME ( 13, 26, 35.00000000000000000, #57 ) ;
#173 = APPROVAL_DATE_TIME ( #49, #19 ) ;
#174 = APPROVAL_STATUS ( 'not_yet_approved' ) ;
#175 = PLANE ( 'NONE',  #80 ) ;
ENDSEC;
END-ISO-10303-21;
