ISO-10303-21;
HEADER;
FILE_DESCRIPTION (( 'STEP AP203' ),
    '1' );
FILE_NAME ('Web Model 68420.STEP',
    '2017-01-31T20:01:17',
    ( '' ),
    ( '' ),
    'SwSTEP 2.0',
    'SolidWorks 2016',
    '' );
FILE_SCHEMA (( 'CONFIG_CONTROL_DESIGN' ));
ENDSEC;

DATA;
#1 = COORDINATED_UNIVERSAL_TIME_OFFSET ( 5, 0, .BEHIND. ) ;
#2 = VECTOR ( 'NONE', #46, 1000.000000000000000 ) ;
#3 = SECURITY_CLASSIFICATION ( '', '', #126 ) ;
#4 = AXIS2_PLACEMENT_3D ( 'NONE', #169, #133, #94 ) ;
#5 = ADVANCED_FACE ( 'NONE', ( #63 ), #114, .T. ) ;
#6 = APPROVAL_DATE_TIME ( #57, #232 ) ;
#7 = ADVANCED_BREP_SHAPE_REPRESENTATION ( 'Web Model 68420', ( #180, #115 ), #179 ) ;
#8 = ORIENTED_EDGE ( 'NONE', *, *, #117, .F. ) ;
#9 = CC_DESIGN_APPROVAL ( #232, ( #3 ) ) ;
#10 = DIRECTION ( 'NONE',  ( -0.0000000000000000000, 0.0000000000000000000, 1.000000000000000000 ) ) ;
#11 = ORIENTED_EDGE ( 'NONE', *, *, #35, .F. ) ;
#12 = DIRECTION ( 'NONE',  ( -0.0000000000000000000, -0.0000000000000000000, -1.000000000000000000 ) ) ;
#13 = CARTESIAN_POINT ( 'NONE',  ( -8.750000000000000000, -6.250000000000000900, 3.000000000000000000 ) ) ;
#14 = CARTESIAN_POINT ( 'NONE',  ( -8.750000000000000000, 6.249999999999999100, 0.0000000000000000000 ) ) ;
#15 = FACE_OUTER_BOUND ( 'NONE', #69, .T. ) ;
#16 = VECTOR ( 'NONE', #162, 1000.000000000000000 ) ;
#17 = DIRECTION ( 'NONE',  ( 0.0000000000000000000, -1.000000000000000000, 0.0000000000000000000 ) ) ;
#18 = APPLICATION_CONTEXT ( 'configuration controlled 3d designs of mechanical parts and assemblies' ) ;
#19 = PERSON_AND_ORGANIZATION ( #118, #36 ) ;
#20 = CLOSED_SHELL ( 'NONE', ( #194, #60, #195, #145, #5, #222 ) ) ;
#21 = ORIENTED_EDGE ( 'NONE', *, *, #218, .F. ) ;
#22 = APPROVAL_DATE_TIME ( #146, #214 ) ;
#23 = VERTEX_POINT ( 'NONE', #149 ) ;
#24 = VECTOR ( 'NONE', #12, 1000.000000000000000 ) ;
#25 = EDGE_CURVE ( 'NONE', #137, #181, #93, .T. ) ;
#26 = VECTOR ( 'NONE', #32, 1000.000000000000000 ) ;
#27 = DIRECTION ( 'NONE',  ( 1.000000000000000000, 0.0000000000000000000, 0.0000000000000000000 ) ) ;
#28 = DIRECTION ( 'NONE',  ( 1.000000000000000000, 0.0000000000000000000, 0.0000000000000000000 ) ) ;
#29 = LINE ( 'NONE', #202, #16 ) ;
#30 = CARTESIAN_POINT ( 'NONE',  ( 8.750000000000000000, -6.250000000000000900, 0.0000000000000000000 ) ) ;
#31 = DIRECTION ( 'NONE',  ( -1.000000000000000000, -0.0000000000000000000, -0.0000000000000000000 ) ) ;
#32 = DIRECTION ( 'NONE',  ( -0.0000000000000000000, -0.0000000000000000000, -1.000000000000000000 ) ) ;
#33 = LOCAL_TIME ( 15, 1, 17.00000000000000000, #221 ) ;
#34 = DIRECTION ( 'NONE',  ( 1.000000000000000000, 0.0000000000000000000, 0.0000000000000000000 ) ) ;
#35 = EDGE_CURVE ( 'NONE', #72, #191, #29, .T. ) ;
#36 = ORGANIZATION ( 'UNSPECIFIED', 'UNSPECIFIED', '' ) ;
#37 = APPROVAL_STATUS ( 'not_yet_approved' ) ;
#38 = ORIENTED_EDGE ( 'NONE', *, *, #103, .F. ) ;
#39 = DATE_TIME_ROLE ( 'creation_date' ) ;
#40 = APPROVAL_ROLE ( '' ) ;
#41 = PERSON_AND_ORGANIZATION ( #118, #36 ) ;
#42 = VERTEX_POINT ( 'NONE', #13 ) ;
#43 = LOCAL_TIME ( 15, 1, 17.00000000000000000, #199 ) ;
#44 = DESIGN_CONTEXT ( 'detailed design', #18, 'design' ) ;
#45 = VECTOR ( 'NONE', #98, 1000.000000000000000 ) ;
#46 = DIRECTION ( 'NONE',  ( -1.000000000000000000, -0.0000000000000000000, -0.0000000000000000000 ) ) ;
#47 = EDGE_LOOP ( 'NONE', ( #163, #38, #151, #213 ) ) ;
#48 = ORIENTED_EDGE ( 'NONE', *, *, #219, .F. ) ;
#49 = CARTESIAN_POINT ( 'NONE',  ( -8.750000000000000000, 6.249999999999999100, 3.000000000000000000 ) ) ;
#50 = UNCERTAINTY_MEASURE_WITH_UNIT (LENGTH_MEASURE( 1.000000000000000100E-005 ), #95, 'distance_accuracy_value', 'NONE');
#51 = CARTESIAN_POINT ( 'NONE',  ( -8.750000000000000000, -6.250000000000000900, 3.000000000000000000 ) ) ;
#52 = PRODUCT_RELATED_PRODUCT_CATEGORY ( 'detail', '', ( #121 ) ) ;
#53 = DIRECTION ( 'NONE',  ( 1.000000000000000000, 0.0000000000000000000, 0.0000000000000000000 ) ) ;
#54 = APPROVAL_ROLE ( '' ) ;
#55 = CALENDAR_DATE ( 2017, 31, 1 ) ;
#56 = CC_DESIGN_PERSON_AND_ORGANIZATION_ASSIGNMENT ( #236, #192, ( #3 ) ) ;
#57 = DATE_AND_TIME ( #85, #96 ) ;
#58 = PRODUCT_DEFINITION ( 'UNKNOWN', '', #164, #44 ) ;
#59 = ORIENTED_EDGE ( 'NONE', *, *, #219, .T. ) ;
#60 = ADVANCED_FACE ( 'NONE', ( #190 ), #148, .F. ) ;
#61 = DATE_AND_TIME ( #105, #225 ) ;
#62 = VECTOR ( 'NONE', #17, 1000.000000000000000 ) ;
#63 = FACE_OUTER_BOUND ( 'NONE', #197, .T. ) ;
#64 = DIRECTION ( 'NONE',  ( 0.0000000000000000000, -1.000000000000000000, 0.0000000000000000000 ) ) ;
#65 = VECTOR ( 'NONE', #27, 1000.000000000000000 ) ;
#66 = CARTESIAN_POINT ( 'NONE',  ( 8.750000000000014200, 6.249999999999999100, 3.000000000000000000 ) ) ;
#67 = PLANE ( 'NONE',  #237 ) ;
#68 = DIRECTION ( 'NONE',  ( -1.000000000000000000, 1.110223024625156300E-015, 0.0000000000000000000 ) ) ;
#69 = EDGE_LOOP ( 'NONE', ( #11, #8, #48, #208 ) ) ;
#70 =( NAMED_UNIT ( * ) PLANE_ANGLE_UNIT ( ) SI_UNIT ( $, .RADIAN. ) );
#71 = AXIS2_PLACEMENT_3D ( 'NONE', #132, #10, #28 ) ;
#72 = VERTEX_POINT ( 'NONE', #30 ) ;
#73 = EDGE_LOOP ( 'NONE', ( #59, #216, #101, #205 ) ) ;
#74 = APPROVAL_PERSON_ORGANIZATION ( #172, #183, #158 ) ;
#75 = CARTESIAN_POINT ( 'NONE',  ( 8.750000000000000000, -6.250000000000000900, 3.000000000000000000 ) ) ;
#76 = ORIENTED_EDGE ( 'NONE', *, *, #228, .F. ) ;
#77 = CARTESIAN_POINT ( 'NONE',  ( -8.750000000000000000, -6.250000000000000900, 3.000000000000000000 ) ) ;
#78 = CARTESIAN_POINT ( 'NONE',  ( -8.750000000000000000, -6.250000000000000900, 0.0000000000000000000 ) ) ;
#79 = APPROVAL_DATE_TIME ( #129, #183 ) ;
#80 =( NAMED_UNIT ( * ) SI_UNIT ( $, .STERADIAN. ) SOLID_ANGLE_UNIT ( ) );
#81 = DIRECTION ( 'NONE',  ( 0.0000000000000000000, 0.0000000000000000000, 1.000000000000000000 ) ) ;
#82 = ORIENTED_EDGE ( 'NONE', *, *, #228, .T. ) ;
#83 = APPROVAL_STATUS ( 'not_yet_approved' ) ;
#84 = EDGE_CURVE ( 'NONE', #191, #173, #113, .T. ) ;
#85 = CALENDAR_DATE ( 2017, 31, 1 ) ;
#86 = SHAPE_DEFINITION_REPRESENTATION ( #193, #7 ) ;
#87 = ORIENTED_EDGE ( 'NONE', *, *, #25, .T. ) ;
#88 = EDGE_CURVE ( 'NONE', #42, #23, #212, .T. ) ;
#89 = PERSON_AND_ORGANIZATION ( #118, #36 ) ;
#90 = CALENDAR_DATE ( 2017, 31, 1 ) ;
#91 = AXIS2_PLACEMENT_3D ( 'NONE', #207, #99, #185 ) ;
#92 = DIRECTION ( 'NONE',  ( 1.000000000000000000, 0.0000000000000000000, 0.0000000000000000000 ) ) ;
#93 = LINE ( 'NONE', #116, #125 ) ;
#94 = DIRECTION ( 'NONE',  ( 0.0000000000000000000, -0.0000000000000000000, 1.000000000000000000 ) ) ;
#95 =( LENGTH_UNIT ( ) NAMED_UNIT ( * ) SI_UNIT ( .MILLI., .METRE. ) );
#96 = LOCAL_TIME ( 15, 1, 17.00000000000000000, #142 ) ;
#97 = LINE ( 'NONE', #184, #24 ) ;
#98 = DIRECTION ( 'NONE',  ( -0.0000000000000000000, -0.0000000000000000000, -1.000000000000000000 ) ) ;
#99 = DIRECTION ( 'NONE',  ( 1.000000000000000000, 0.0000000000000000000, -0.0000000000000000000 ) ) ;
#100 = DIRECTION ( 'NONE',  ( -1.110223024625156300E-015, -1.000000000000000000, 0.0000000000000000000 ) ) ;
#101 = ORIENTED_EDGE ( 'NONE', *, *, #171, .F. ) ;
#102 = ORIENTED_EDGE ( 'NONE', *, *, #171, .T. ) ;
#103 = EDGE_CURVE ( 'NONE', #181, #173, #97, .T. ) ;
#104 = AXIS2_PLACEMENT_3D ( 'NONE', #136, #155, #53 ) ;
#105 = CALENDAR_DATE ( 2017, 31, 1 ) ;
#106 = VECTOR ( 'NONE', #188, 1000.000000000000000 ) ;
#107 = LINE ( 'NONE', #174, #157 ) ;
#108 = PERSON_AND_ORGANIZATION ( #118, #36 ) ;
#109 = VECTOR ( 'NONE', #92, 1000.000000000000000 ) ;
#110 = ORIENTED_EDGE ( 'NONE', *, *, #123, .F. ) ;
#111 = FACE_OUTER_BOUND ( 'NONE', #230, .T. ) ;
#112 = FACE_OUTER_BOUND ( 'NONE', #73, .T. ) ;
#113 = LINE ( 'NONE', #167, #2 ) ;
#114 = PLANE ( 'NONE',  #71 ) ;
#115 = AXIS2_PLACEMENT_3D ( 'NONE', #209, #81, #34 ) ;
#116 = CARTESIAN_POINT ( 'NONE',  ( -8.750000000000000000, 6.249999999999999100, 3.000000000000000000 ) ) ;
#117 = EDGE_CURVE ( 'NONE', #23, #72, #156, .T. ) ;
#118 = PERSON ( 'UNSPECIFIED', 'UNSPECIFIED', 'UNSPECIFIED', ('UNSPECIFIED'), ('UNSPECIFIED'), ('UNSPECIFIED') ) ;
#119 = PERSON_AND_ORGANIZATION_ROLE ( 'design_owner' ) ;
#120 = PLANE ( 'NONE',  #104 ) ;
#121 = PRODUCT ( 'Web Model 68420', 'Web Model 68420', '', ( #227 ) ) ;
#122 = CARTESIAN_POINT ( 'NONE',  ( 8.750000000000014200, 6.249999999999999100, 0.0000000000000000000 ) ) ;
#123 = EDGE_CURVE ( 'NONE', #42, #144, #153, .T. ) ;
#124 = LINE ( 'NONE', #135, #45 ) ;
#125 = VECTOR ( 'NONE', #31, 1000.000000000000000 ) ;
#126 = SECURITY_CLASSIFICATION_LEVEL ( 'unclassified' ) ;
#127 = PERSON_AND_ORGANIZATION_ROLE ( 'creator' ) ;
#128 = ORIENTED_EDGE ( 'NONE', *, *, #35, .T. ) ;
#129 = DATE_AND_TIME ( #90, #43 ) ;
#130 = PERSON_AND_ORGANIZATION ( #118, #36 ) ;
#131 = EDGE_LOOP ( 'NONE', ( #223, #215, #110, #147 ) ) ;
#132 = CARTESIAN_POINT ( 'NONE',  ( 8.750000000000000000, -6.250000000000000900, 3.000000000000000000 ) ) ;
#133 = DIRECTION ( 'NONE',  ( 0.0000000000000000000, 1.000000000000000000, 0.0000000000000000000 ) ) ;
#134 = CARTESIAN_POINT ( 'NONE',  ( 8.750000000000014200, 6.249999999999999100, 3.000000000000000000 ) ) ;
#135 = CARTESIAN_POINT ( 'NONE',  ( 8.750000000000014200, 6.249999999999999100, 3.000000000000000000 ) ) ;
#136 = CARTESIAN_POINT ( 'NONE',  ( 8.750000000000000000, -6.250000000000000900, 0.0000000000000000000 ) ) ;
#137 = VERTEX_POINT ( 'NONE', #66 ) ;
#138 = APPLICATION_PROTOCOL_DEFINITION ( 'international standard', 'config_control_design', 1994, #18 ) ;
#139 = LINE ( 'NONE', #201, #26 ) ;
#140 = DATE_TIME_ROLE ( 'classification_date' ) ;
#141 = PERSON_AND_ORGANIZATION_ROLE ( 'creator' ) ;
#142 = COORDINATED_UNIVERSAL_TIME_OFFSET ( 5, 0, .BEHIND. ) ;
#143 = ORIENTED_EDGE ( 'NONE', *, *, #123, .T. ) ;
#144 = VERTEX_POINT ( 'NONE', #75 ) ;
#145 = ADVANCED_FACE ( 'NONE', ( #182 ), #161, .F. ) ;
#146 = DATE_AND_TIME ( #206, #203 ) ;
#147 = ORIENTED_EDGE ( 'NONE', *, *, #88, .T. ) ;
#148 = PLANE ( 'NONE',  #168 ) ;
#149 = CARTESIAN_POINT ( 'NONE',  ( -8.750000000000000000, -6.250000000000000900, 0.0000000000000000000 ) ) ;
#150 = APPROVAL_PERSON_ORGANIZATION ( #186, #232, #40 ) ;
#151 = ORIENTED_EDGE ( 'NONE', *, *, #25, .F. ) ;
#152 = APPLICATION_PROTOCOL_DEFINITION ( 'international standard', 'config_control_design', 1994, #231 ) ;
#153 = LINE ( 'NONE', #77, #65 ) ;
#154 = DIRECTION ( 'NONE',  ( 0.0000000000000000000, -1.000000000000000000, 0.0000000000000000000 ) ) ;
#155 = DIRECTION ( 'NONE',  ( -0.0000000000000000000, 0.0000000000000000000, 1.000000000000000000 ) ) ;
#156 = LINE ( 'NONE', #78, #109 ) ;
#157 = VECTOR ( 'NONE', #154, 1000.000000000000000 ) ;
#158 = APPROVAL_ROLE ( '' ) ;
#159 = LINE ( 'NONE', #229, #106 ) ;
#160 = VECTOR ( 'NONE', #165, 1000.000000000000000 ) ;
#161 = PLANE ( 'NONE',  #4 ) ;
#162 = DIRECTION ( 'NONE',  ( 1.110223024625156500E-015, 1.000000000000000000, -0.0000000000000000000 ) ) ;
#163 = ORIENTED_EDGE ( 'NONE', *, *, #84, .T. ) ;
#164 = PRODUCT_DEFINITION_FORMATION_WITH_SPECIFIED_SOURCE ( 'ANY', '', #121, .NOT_KNOWN. ) ;
#165 = DIRECTION ( 'NONE',  ( -0.0000000000000000000, -0.0000000000000000000, -1.000000000000000000 ) ) ;
#166 = EDGE_CURVE ( 'NONE', #144, #72, #139, .T. ) ;
#167 = CARTESIAN_POINT ( 'NONE',  ( -8.750000000000000000, 6.249999999999999100, 0.0000000000000000000 ) ) ;
#168 = AXIS2_PLACEMENT_3D ( 'NONE', #49, #64, #204 ) ;
#169 = CARTESIAN_POINT ( 'NONE',  ( -8.750000000000000000, -6.250000000000000900, 3.000000000000000000 ) ) ;
#170 = CC_DESIGN_APPROVAL ( #214, ( #164 ) ) ;
#171 = EDGE_CURVE ( 'NONE', #181, #42, #107, .T. ) ;
#172 = PERSON_AND_ORGANIZATION ( #118, #36 ) ;
#173 = VERTEX_POINT ( 'NONE', #14 ) ;
#174 = CARTESIAN_POINT ( 'NONE',  ( -8.750000000000000000, 6.249999999999999100, 3.000000000000000000 ) ) ;
#175 = PERSON_AND_ORGANIZATION_ROLE ( 'design_supplier' ) ;
#176 = LINE ( 'NONE', #210, #62 ) ;
#177 = CC_DESIGN_PERSON_AND_ORGANIZATION_ASSIGNMENT ( #41, #141, ( #58 ) ) ;
#178 = ORIENTED_EDGE ( 'NONE', *, *, #166, .T. ) ;
#179 =( GEOMETRIC_REPRESENTATION_CONTEXT ( 3 ) GLOBAL_UNCERTAINTY_ASSIGNED_CONTEXT ( ( #50 ) ) GLOBAL_UNIT_ASSIGNED_CONTEXT ( ( #95, #70, #80 ) ) REPRESENTATION_CONTEXT ( 'NONE', 'WORKASPACE' ) );
#180 = MANIFOLD_SOLID_BREP ( 'Extrude1', #20 ) ;
#181 = VERTEX_POINT ( 'NONE', #211 ) ;
#182 = FACE_OUTER_BOUND ( 'NONE', #131, .T. ) ;
#183 = APPROVAL ( #37, 'UNSPECIFIED' ) ;
#184 = CARTESIAN_POINT ( 'NONE',  ( -8.750000000000000000, 6.249999999999999100, 3.000000000000000000 ) ) ;
#185 = DIRECTION ( 'NONE',  ( -0.0000000000000000000, 0.0000000000000000000, -1.000000000000000000 ) ) ;
#186 = PERSON_AND_ORGANIZATION ( #118, #36 ) ;
#187 = CC_DESIGN_DATE_AND_TIME_ASSIGNMENT ( #220, #39, ( #58 ) ) ;
#188 = DIRECTION ( 'NONE',  ( 1.110223024625156500E-015, 1.000000000000000000, -0.0000000000000000000 ) ) ;
#189 = CC_DESIGN_PERSON_AND_ORGANIZATION_ASSIGNMENT ( #89, #175, ( #164 ) ) ;
#190 = FACE_OUTER_BOUND ( 'NONE', #47, .T. ) ;
#191 = VERTEX_POINT ( 'NONE', #122 ) ;
#192 = PERSON_AND_ORGANIZATION_ROLE ( 'classification_officer' ) ;
#193 = PRODUCT_DEFINITION_SHAPE ( 'NONE', 'NONE',  #58 ) ;
#194 = ADVANCED_FACE ( 'NONE', ( #111 ), #67, .F. ) ;
#195 = ADVANCED_FACE ( 'NONE', ( #112 ), #226, .F. ) ;
#196 = APPROVAL_PERSON_ORGANIZATION ( #19, #214, #54 ) ;
#197 = EDGE_LOOP ( 'NONE', ( #82, #87, #102, #143 ) ) ;
#198 = COORDINATED_UNIVERSAL_TIME_OFFSET ( 5, 0, .BEHIND. ) ;
#199 = COORDINATED_UNIVERSAL_TIME_OFFSET ( 5, 0, .BEHIND. ) ;
#200 = CC_DESIGN_PERSON_AND_ORGANIZATION_ASSIGNMENT ( #108, #127, ( #164 ) ) ;
#201 = CARTESIAN_POINT ( 'NONE',  ( 8.750000000000000000, -6.250000000000000900, 3.000000000000000000 ) ) ;
#202 = CARTESIAN_POINT ( 'NONE',  ( 8.750000000000014200, 6.249999999999999100, 0.0000000000000000000 ) ) ;
#203 = LOCAL_TIME ( 15, 1, 17.00000000000000000, #1 ) ;
#204 = DIRECTION ( 'NONE',  ( 0.0000000000000000000, -0.0000000000000000000, -1.000000000000000000 ) ) ;
#205 = ORIENTED_EDGE ( 'NONE', *, *, #103, .T. ) ;
#206 = CALENDAR_DATE ( 2017, 31, 1 ) ;
#207 = CARTESIAN_POINT ( 'NONE',  ( -8.750000000000000000, 6.249999999999999100, 3.000000000000000000 ) ) ;
#208 = ORIENTED_EDGE ( 'NONE', *, *, #84, .F. ) ;
#209 = CARTESIAN_POINT ( 'NONE',  ( 0.0000000000000000000, 0.0000000000000000000, 0.0000000000000000000 ) ) ;
#210 = CARTESIAN_POINT ( 'NONE',  ( -8.750000000000000000, 6.249999999999999100, 0.0000000000000000000 ) ) ;
#211 = CARTESIAN_POINT ( 'NONE',  ( -8.750000000000000000, 6.249999999999999100, 3.000000000000000000 ) ) ;
#212 = LINE ( 'NONE', #51, #160 ) ;
#213 = ORIENTED_EDGE ( 'NONE', *, *, #218, .T. ) ;
#214 = APPROVAL ( #234, 'UNSPECIFIED' ) ;
#215 = ORIENTED_EDGE ( 'NONE', *, *, #166, .F. ) ;
#216 = ORIENTED_EDGE ( 'NONE', *, *, #88, .F. ) ;
#217 = CC_DESIGN_DATE_AND_TIME_ASSIGNMENT ( #61, #140, ( #3 ) ) ;
#218 = EDGE_CURVE ( 'NONE', #137, #191, #124, .T. ) ;
#219 = EDGE_CURVE ( 'NONE', #173, #23, #176, .T. ) ;
#220 = DATE_AND_TIME ( #55, #33 ) ;
#221 = COORDINATED_UNIVERSAL_TIME_OFFSET ( 5, 0, .BEHIND. ) ;
#222 = ADVANCED_FACE ( 'NONE', ( #15 ), #120, .F. ) ;
#223 = ORIENTED_EDGE ( 'NONE', *, *, #117, .T. ) ;
#224 = CC_DESIGN_PERSON_AND_ORGANIZATION_ASSIGNMENT ( #130, #119, ( #121 ) ) ;
#225 = LOCAL_TIME ( 15, 1, 17.00000000000000000, #198 ) ;
#226 = PLANE ( 'NONE',  #91 ) ;
#227 = MECHANICAL_CONTEXT ( 'NONE', #231, 'mechanical' ) ;
#228 = EDGE_CURVE ( 'NONE', #144, #137, #159, .T. ) ;
#229 = CARTESIAN_POINT ( 'NONE',  ( 8.750000000000014200, 6.249999999999999100, 3.000000000000000000 ) ) ;
#230 = EDGE_LOOP ( 'NONE', ( #128, #21, #76, #178 ) ) ;
#231 = APPLICATION_CONTEXT ( 'configuration controlled 3d designs of mechanical parts and assemblies' ) ;
#232 = APPROVAL ( #83, 'UNSPECIFIED' ) ;
#233 = CC_DESIGN_SECURITY_CLASSIFICATION ( #3, ( #164 ) ) ;
#234 = APPROVAL_STATUS ( 'not_yet_approved' ) ;
#235 = CC_DESIGN_APPROVAL ( #183, ( #58 ) ) ;
#236 = PERSON_AND_ORGANIZATION ( #118, #36 ) ;
#237 = AXIS2_PLACEMENT_3D ( 'NONE', #134, #68, #100 ) ;
ENDSEC;
END-ISO-10303-21;
