ISO-10303-21;
HEADER;
FILE_DESCRIPTION (( 'STEP AP203' ),
    '1' );
FILE_NAME ('Web Model 20464_20464.step',
    '2022-06-06T20:38:35',
    ( 'WC' ),
    ( 'Windows Central' ),
    'SwSTEP 2.0',
    'SolidWorks 2021',
    '' );
FILE_SCHEMA (( 'CONFIG_CONTROL_DESIGN' ));
ENDSEC;

DATA;
#1 = APPROVAL_PERSON_ORGANIZATION ( #75, #118, #24 ) ;
#2 = AXIS2_PLACEMENT_3D ( 'NONE', #18, #12, #32 ) ;
#3 = APPLICATION_CONTEXT ( 'configuration controlled 3d designs of mechanical parts and assemblies' ) ;
#4 = ORIENTED_EDGE ( 'NONE', *, *, #175, .T. ) ;
#5 = VERTEX_POINT ( 'NONE', #84 ) ;
#6 = DIRECTION ( 'NONE',  ( 1.000000000000000000, 0.000000000000000000, 0.000000000000000000 ) ) ;
#7 = CARTESIAN_POINT ( 'NONE',  ( 0.000000000000000000, 0.000000000000000000, 0.000000000000000000 ) ) ;
#8 = DIRECTION ( 'NONE',  ( 1.000000000000000000, 0.000000000000000000, 0.000000000000000000 ) ) ;
#9 =( NAMED_UNIT ( * ) PLANE_ANGLE_UNIT ( ) SI_UNIT ( $, .RADIAN. ) );
#10 = CC_DESIGN_DATE_AND_TIME_ASSIGNMENT ( #156, #34, ( #39 ) ) ;
#11 = LOCAL_TIME ( 16, 38, 35.00000000000000000, #58 ) ;
#12 = DIRECTION ( 'NONE',  ( 0.000000000000000000, 0.000000000000000000, 1.000000000000000000 ) ) ;
#13 = CC_DESIGN_APPROVAL ( #118, ( #39 ) ) ;
#14 = EDGE_LOOP ( 'NONE', ( #55, #69, #151, #168 ) ) ;
#15 = CARTESIAN_POINT ( 'NONE',  ( 0.000000000000000000, 0.000000000000000000, 0.000000000000000000 ) ) ;
#16 = AXIS2_PLACEMENT_3D ( 'NONE', #142, #73, #47 ) ;
#17 = CARTESIAN_POINT ( 'NONE',  ( -2.499999999999999556, 0.000000000000000000, 1.000000000000000000 ) ) ;
#18 = CARTESIAN_POINT ( 'NONE',  ( 0.000000000000000000, 0.000000000000000000, 1.000000000000000000 ) ) ;
#19 = EDGE_CURVE ( 'NONE', #120, #108, #27, .T. ) ;
#20 = APPLICATION_PROTOCOL_DEFINITION ( 'international standard', 'config_control_design', 1994, #52 ) ;
#21 = PRODUCT_DEFINITION_FORMATION_WITH_SPECIFIED_SOURCE ( 'ANY', '', #174, .NOT_KNOWN. ) ;
#22 = CARTESIAN_POINT ( 'NONE',  ( 2.499999999999999556, 3.061616997868382648E-16, 1.000000000000000000 ) ) ;
#23 = PERSON_AND_ORGANIZATION ( #59, #37 ) ;
#24 = APPROVAL_ROLE ( '' ) ;
#25 = EDGE_CURVE ( 'NONE', #42, #108, #153, .T. ) ;
#26 = CC_DESIGN_APPROVAL ( #113, ( #21 ) ) ;
#27 = CIRCLE ( 'NONE', #117, 2.499999999999999556 ) ;
#28 = ORIENTED_EDGE ( 'NONE', *, *, #172, .F. ) ;
#29 = DIRECTION ( 'NONE',  ( -0.000000000000000000, -0.000000000000000000, -1.000000000000000000 ) ) ;
#30 = CARTESIAN_POINT ( 'NONE',  ( 0.000000000000000000, 0.000000000000000000, 1.000000000000000000 ) ) ;
#31 = CC_DESIGN_DATE_AND_TIME_ASSIGNMENT ( #147, #80, ( #119 ) ) ;
#32 = DIRECTION ( 'NONE',  ( 1.000000000000000000, 0.000000000000000000, 0.000000000000000000 ) ) ;
#33 = CALENDAR_DATE ( 2022, 6, 6 ) ;
#34 = DATE_TIME_ROLE ( 'classification_date' ) ;
#35 = FACE_OUTER_BOUND ( 'NONE', #82, .T. ) ;
#36 = PERSON_AND_ORGANIZATION_ROLE ( 'classification_officer' ) ;
#37 = ORGANIZATION ( 'UNSPECIFIED', 'UNSPECIFIED', '' ) ;
#38 = ADVANCED_FACE ( 'NONE', ( #139 ), #71, .F. ) ;
#39 = SECURITY_CLASSIFICATION ( '', '', #169 ) ;
#40 = CC_DESIGN_APPROVAL ( #66, ( #119 ) ) ;
#41 = PERSON_AND_ORGANIZATION ( #59, #37 ) ;
#42 = VERTEX_POINT ( 'NONE', #129 ) ;
#43 = DIRECTION ( 'NONE',  ( 1.000000000000000000, 0.000000000000000000, 0.000000000000000000 ) ) ;
#44 = APPROVAL_ROLE ( '' ) ;
#45 =( NAMED_UNIT ( * ) SI_UNIT ( $, .STERADIAN. ) SOLID_ANGLE_UNIT ( ) );
#46 = CARTESIAN_POINT ( 'NONE',  ( -2.499999999999999556, 0.000000000000000000, 0.000000000000000000 ) ) ;
#47 = DIRECTION ( 'NONE',  ( -1.000000000000000000, 0.000000000000000000, 0.000000000000000000 ) ) ;
#48 = AXIS2_PLACEMENT_3D ( 'NONE', #95, #173, #8 ) ;
#49 = DATE_AND_TIME ( #133, #103 ) ;
#50 = ADVANCED_FACE ( 'NONE', ( #35 ), #112, .T. ) ;
#51 = VECTOR ( 'NONE', #29, 1000.000000000000000 ) ;
#52 = APPLICATION_CONTEXT ( 'configuration controlled 3d designs of mechanical parts and assemblies' ) ;
#53 = PERSON_AND_ORGANIZATION_ROLE ( 'creator' ) ;
#54 = COORDINATED_UNIVERSAL_TIME_OFFSET ( 5, 0, .BEHIND. ) ;
#55 = ORIENTED_EDGE ( 'NONE', *, *, #152, .F. ) ;
#56 = EDGE_LOOP ( 'NONE', ( #122, #137 ) ) ;
#57 = DIRECTION ( 'NONE',  ( 0.000000000000000000, 0.000000000000000000, 1.000000000000000000 ) ) ;
#58 = COORDINATED_UNIVERSAL_TIME_OFFSET ( 5, 0, .BEHIND. ) ;
#59 = PERSON ( 'UNSPECIFIED', 'UNSPECIFIED', 'UNSPECIFIED', ('UNSPECIFIED'), ('UNSPECIFIED'), ('UNSPECIFIED') ) ;
#60 = APPROVAL_DATE_TIME ( #124, #66 ) ;
#61 = APPLICATION_PROTOCOL_DEFINITION ( 'international standard', 'config_control_design', 1994, #3 ) ;
#62 = COORDINATED_UNIVERSAL_TIME_OFFSET ( 5, 0, .BEHIND. ) ;
#63 = APPROVAL_PERSON_ORGANIZATION ( #136, #113, #67 ) ;
#64 = LINE ( 'NONE', #22, #132 ) ;
#65 = PERSON_AND_ORGANIZATION_ROLE ( 'design_supplier' ) ;
#66 = APPROVAL ( #167, 'UNSPECIFIED' ) ;
#67 = APPROVAL_ROLE ( '' ) ;
#68 = DIRECTION ( 'NONE',  ( 1.000000000000000000, 0.000000000000000000, -0.000000000000000000 ) ) ;
#69 = ORIENTED_EDGE ( 'NONE', *, *, #172, .T. ) ;
#70 = CARTESIAN_POINT ( 'NONE',  ( 2.499999999999999556, 3.061616997868382648E-16, 0.000000000000000000 ) ) ;
#71 = PLANE ( 'NONE',  #90 ) ;
#72 = COORDINATED_UNIVERSAL_TIME_OFFSET ( 5, 0, .BEHIND. ) ;
#73 = DIRECTION ( 'NONE',  ( -0.000000000000000000, -0.000000000000000000, -1.000000000000000000 ) ) ;
#74 = CARTESIAN_POINT ( 'NONE',  ( 0.000000000000000000, 0.000000000000000000, 0.000000000000000000 ) ) ;
#75 = PERSON_AND_ORGANIZATION ( #59, #37 ) ;
#76 = LOCAL_TIME ( 16, 38, 35.00000000000000000, #62 ) ;
#77 = AXIS2_PLACEMENT_3D ( 'NONE', #86, #165, #97 ) ;
#78 = COORDINATED_UNIVERSAL_TIME_OFFSET ( 5, 0, .BEHIND. ) ;
#79 =( GEOMETRIC_REPRESENTATION_CONTEXT ( 3 ) GLOBAL_UNCERTAINTY_ASSIGNED_CONTEXT ( ( #145 ) ) GLOBAL_UNIT_ASSIGNED_CONTEXT ( ( #157, #9, #45 ) ) REPRESENTATION_CONTEXT ( 'NONE', 'WORKASPACE' ) );
#80 = DATE_TIME_ROLE ( 'creation_date' ) ;
#81 = CLOSED_SHELL ( 'NONE', ( #161, #148, #50, #38 ) ) ;
#82 = EDGE_LOOP ( 'NONE', ( #92, #135 ) ) ;
#83 = PERSON_AND_ORGANIZATION ( #59, #37 ) ;
#84 = CARTESIAN_POINT ( 'NONE',  ( 2.499999999999999556, 3.061616997868382648E-16, 1.000000000000000000 ) ) ;
#85 = CYLINDRICAL_SURFACE ( 'NONE', #16, 2.499999999999999556 ) ;
#86 = CARTESIAN_POINT ( 'NONE',  ( 0.000000000000000000, 0.000000000000000000, 1.000000000000000000 ) ) ;
#87 = DIRECTION ( 'NONE',  ( 0.000000000000000000, 0.000000000000000000, 1.000000000000000000 ) ) ;
#88 = LOCAL_TIME ( 16, 38, 35.00000000000000000, #78 ) ;
#89 = ADVANCED_BREP_SHAPE_REPRESENTATION ( 'Web Model 20464_20464', ( #102, #48 ), #79 ) ;
#90 = AXIS2_PLACEMENT_3D ( 'NONE', #7, #111, #68 ) ;
#91 = CC_DESIGN_PERSON_AND_ORGANIZATION_ASSIGNMENT ( #83, #155, ( #174 ) ) ;
#92 = ORIENTED_EDGE ( 'NONE', *, *, #125, .T. ) ;
#93 = EDGE_LOOP ( 'NONE', ( #28, #123, #164, #4 ) ) ;
#94 = CARTESIAN_POINT ( 'NONE',  ( 0.000000000000000000, 0.000000000000000000, 1.000000000000000000 ) ) ;
#95 = CARTESIAN_POINT ( 'NONE',  ( 0.000000000000000000, 0.000000000000000000, 0.000000000000000000 ) ) ;
#96 = SHAPE_DEFINITION_REPRESENTATION ( #143, #89 ) ;
#97 = DIRECTION ( 'NONE',  ( -1.000000000000000000, 0.000000000000000000, 0.000000000000000000 ) ) ;
#98 = APPROVAL_DATE_TIME ( #116, #118 ) ;
#99 = CALENDAR_DATE ( 2022, 6, 6 ) ;
#100 = PERSON_AND_ORGANIZATION ( #59, #37 ) ;
#101 = AXIS2_PLACEMENT_3D ( 'NONE', #94, #87, #138 ) ;
#102 = MANIFOLD_SOLID_BREP ( 'Boss-Extrude1', #81 ) ;
#103 = LOCAL_TIME ( 16, 38, 35.00000000000000000, #54 ) ;
#104 = PRODUCT_RELATED_PRODUCT_CATEGORY ( 'detail', '', ( #174 ) ) ;
#105 = CC_DESIGN_PERSON_AND_ORGANIZATION_ASSIGNMENT ( #41, #53, ( #119 ) ) ;
#106 = APPROVAL_STATUS ( 'not_yet_approved' ) ;
#107 = CC_DESIGN_SECURITY_CLASSIFICATION ( #39, ( #21 ) ) ;
#108 = VERTEX_POINT ( 'NONE', #46 ) ;
#109 = MECHANICAL_CONTEXT ( 'NONE', #52, 'mechanical' ) ;
#110 = PERSON_AND_ORGANIZATION ( #59, #37 ) ;
#111 = DIRECTION ( 'NONE',  ( 0.000000000000000000, 0.000000000000000000, 1.000000000000000000 ) ) ;
#112 = PLANE ( 'NONE',  #101 ) ;
#113 = APPROVAL ( #106, 'UNSPECIFIED' ) ;
#114 = AXIS2_PLACEMENT_3D ( 'NONE', #74, #57, #128 ) ;
#115 = CALENDAR_DATE ( 2022, 6, 6 ) ;
#116 = DATE_AND_TIME ( #115, #88 ) ;
#117 = AXIS2_PLACEMENT_3D ( 'NONE', #15, #166, #43 ) ;
#118 = APPROVAL ( #127, 'UNSPECIFIED' ) ;
#119 = PRODUCT_DEFINITION ( 'UNKNOWN', '', #21, #159 ) ;
#120 = VERTEX_POINT ( 'NONE', #70 ) ;
#121 = CIRCLE ( 'NONE', #149, 2.499999999999999556 ) ;
#122 = ORIENTED_EDGE ( 'NONE', *, *, #175, .F. ) ;
#123 = ORIENTED_EDGE ( 'NONE', *, *, #125, .F. ) ;
#124 = DATE_AND_TIME ( #33, #163 ) ;
#125 = EDGE_CURVE ( 'NONE', #42, #5, #121, .T. ) ;
#126 = FACE_OUTER_BOUND ( 'NONE', #93, .T. ) ;
#127 = APPROVAL_STATUS ( 'not_yet_approved' ) ;
#128 = DIRECTION ( 'NONE',  ( 1.000000000000000000, 0.000000000000000000, 0.000000000000000000 ) ) ;
#129 = CARTESIAN_POINT ( 'NONE',  ( -2.499999999999999556, 0.000000000000000000, 1.000000000000000000 ) ) ;
#130 = APPROVAL_DATE_TIME ( #49, #113 ) ;
#131 = CC_DESIGN_PERSON_AND_ORGANIZATION_ASSIGNMENT ( #144, #65, ( #21 ) ) ;
#132 = VECTOR ( 'NONE', #140, 1000.000000000000000 ) ;
#133 = CALENDAR_DATE ( 2022, 6, 6 ) ;
#134 = CC_DESIGN_PERSON_AND_ORGANIZATION_ASSIGNMENT ( #100, #36, ( #39 ) ) ;
#135 = ORIENTED_EDGE ( 'NONE', *, *, #152, .T. ) ;
#136 = PERSON_AND_ORGANIZATION ( #59, #37 ) ;
#137 = ORIENTED_EDGE ( 'NONE', *, *, #19, .F. ) ;
#138 = DIRECTION ( 'NONE',  ( 1.000000000000000000, 0.000000000000000000, -0.000000000000000000 ) ) ;
#139 = FACE_OUTER_BOUND ( 'NONE', #56, .T. ) ;
#140 = DIRECTION ( 'NONE',  ( -0.000000000000000000, -0.000000000000000000, -1.000000000000000000 ) ) ;
#141 = FACE_OUTER_BOUND ( 'NONE', #14, .T. ) ;
#142 = CARTESIAN_POINT ( 'NONE',  ( 0.000000000000000000, 0.000000000000000000, 1.000000000000000000 ) ) ;
#143 = PRODUCT_DEFINITION_SHAPE ( 'NONE', 'NONE',  #119 ) ;
#144 = PERSON_AND_ORGANIZATION ( #59, #37 ) ;
#145 = UNCERTAINTY_MEASURE_WITH_UNIT (LENGTH_MEASURE( 1.000000000000000082E-05 ), #157, 'distance_accuracy_value', 'NONE');
#146 = APPROVAL_PERSON_ORGANIZATION ( #110, #66, #44 ) ;
#147 = DATE_AND_TIME ( #150, #11 ) ;
#148 = ADVANCED_FACE ( 'NONE', ( #126 ), #171, .T. ) ;
#149 = AXIS2_PLACEMENT_3D ( 'NONE', #30, #154, #6 ) ;
#150 = CALENDAR_DATE ( 2022, 6, 6 ) ;
#151 = ORIENTED_EDGE ( 'NONE', *, *, #19, .T. ) ;
#152 = EDGE_CURVE ( 'NONE', #5, #42, #170, .T. ) ;
#153 = LINE ( 'NONE', #17, #51 ) ;
#154 = DIRECTION ( 'NONE',  ( 0.000000000000000000, 0.000000000000000000, 1.000000000000000000 ) ) ;
#155 = PERSON_AND_ORGANIZATION_ROLE ( 'design_owner' ) ;
#156 = DATE_AND_TIME ( #99, #76 ) ;
#157 =( LENGTH_UNIT ( ) NAMED_UNIT ( * ) SI_UNIT ( .MILLI., .METRE. ) );
#158 = PERSON_AND_ORGANIZATION_ROLE ( 'creator' ) ;
#159 = DESIGN_CONTEXT ( 'detailed design', #3, 'design' ) ;
#160 = CIRCLE ( 'NONE', #114, 2.499999999999999556 ) ;
#161 = ADVANCED_FACE ( 'NONE', ( #141 ), #85, .T. ) ;
#162 = CC_DESIGN_PERSON_AND_ORGANIZATION_ASSIGNMENT ( #23, #158, ( #21 ) ) ;
#163 = LOCAL_TIME ( 16, 38, 35.00000000000000000, #72 ) ;
#164 = ORIENTED_EDGE ( 'NONE', *, *, #25, .T. ) ;
#165 = DIRECTION ( 'NONE',  ( -0.000000000000000000, -0.000000000000000000, -1.000000000000000000 ) ) ;
#166 = DIRECTION ( 'NONE',  ( 0.000000000000000000, 0.000000000000000000, 1.000000000000000000 ) ) ;
#167 = APPROVAL_STATUS ( 'not_yet_approved' ) ;
#168 = ORIENTED_EDGE ( 'NONE', *, *, #25, .F. ) ;
#169 = SECURITY_CLASSIFICATION_LEVEL ( 'unclassified' ) ;
#170 = CIRCLE ( 'NONE', #2, 2.499999999999999556 ) ;
#171 = CYLINDRICAL_SURFACE ( 'NONE', #77, 2.499999999999999556 ) ;
#172 = EDGE_CURVE ( 'NONE', #5, #120, #64, .T. ) ;
#173 = DIRECTION ( 'NONE',  ( 0.000000000000000000, 0.000000000000000000, 1.000000000000000000 ) ) ;
#174 = PRODUCT ( 'Web Model 20464_20464', 'Web Model 20464_20464', '', ( #109 ) ) ;
#175 = EDGE_CURVE ( 'NONE', #108, #120, #160, .T. ) ;
ENDSEC;
END-ISO-10303-21;
