ISO-10303-21;
HEADER;
FILE_DESCRIPTION (( 'STEP AP203' ),
    '1' );
FILE_NAME ('TTN188100-E0W.STEP',
    '2019-12-16T20:26:39',
    ( '' ),
    ( '' ),
    'SwSTEP 2.0',
    'SolidWorks 2018',
    '' );
FILE_SCHEMA (( 'CONFIG_CONTROL_DESIGN' ));
ENDSEC;

DATA;
#1 = UNCERTAINTY_MEASURE_WITH_UNIT (LENGTH_MEASURE( 1.000000000000000082E-05 ), #169, 'distance_accuracy_value', 'NONE');
#2 =( GEOMETRIC_REPRESENTATION_CONTEXT ( 3 ) GLOBAL_UNCERTAINTY_ASSIGNED_CONTEXT ( ( #1 ) ) GLOBAL_UNIT_ASSIGNED_CONTEXT ( ( #169, #227, #96 ) ) REPRESENTATION_CONTEXT ( 'NONE', 'WORKASPACE' ) );
#3 = ORIENTED_EDGE ( 'NONE', *, *, #70, .F. ) ;
#4 = CARTESIAN_POINT ( 'NONE',  ( 0.0000000000000000000, 0.0000000000000000000, 0.0000000000000000000 ) ) ;
#5 = AXIS2_PLACEMENT_3D ( 'NONE', #206, #181, #72 ) ;
#6 = CARTESIAN_POINT ( 'NONE',  ( -3.110602869834273315E-15, -25.39999999999997016, -2.997775367987287609 ) ) ;
#7 = CARTESIAN_POINT ( 'NONE',  ( 0.0000000000000000000, 0.0000000000000000000, 0.0000000000000000000 ) ) ;
#8 = DIRECTION ( 'NONE',  ( -1.000000000000000000, 0.0000000000000000000, 0.0000000000000000000 ) ) ;
#9 = ORIENTED_EDGE ( 'NONE', *, *, #24, .T. ) ;
#10 = PERSON_AND_ORGANIZATION ( #194, #43 ) ;
#11 = CARTESIAN_POINT ( 'NONE',  ( 0.0000000000000000000, 0.0000000000000000000, 0.0000000000000000000 ) ) ;
#12 = ORIENTED_EDGE ( 'NONE', *, *, #237, .F. ) ;
#13 = CC_DESIGN_PERSON_AND_ORGANIZATION_ASSIGNMENT ( #107, #271, ( #30 ) ) ;
#14 = CARTESIAN_POINT ( 'NONE',  ( 0.0000000000000000000, 0.0000000000000000000, 212.4299999999999784 ) ) ;
#15 = APPLICATION_CONTEXT ( 'configuration controlled 3d designs of mechanical parts and assemblies' ) ;
#16 = APPROVAL_ROLE ( '' ) ;
#17 = EDGE_CURVE ( 'NONE', #37, #39, #195, .T. ) ;
#18 = EDGE_CURVE ( 'NONE', #37, #215, #106, .T. ) ;
#19 = APPROVAL_ROLE ( '' ) ;
#20 = ADVANCED_BREP_SHAPE_REPRESENTATION ( 'TTN188100-E0W', ( #45, #229 ), #2 ) ;
#21 = ORIENTED_EDGE ( 'NONE', *, *, #136, .T. ) ;
#22 = ORIENTED_EDGE ( 'NONE', *, *, #192, .F. ) ;
#23 = CALENDAR_DATE ( 2019, 16, 12 ) ;
#24 = EDGE_CURVE ( 'NONE', #39, #268, #76, .T. ) ;
#25 = ADVANCED_FACE ( 'NONE', ( #234 ), #46, .T. ) ;
#26 = APPROVAL ( #79, 'UNSPECIFIED' ) ;
#27 = CARTESIAN_POINT ( 'NONE',  ( -25.39999999999998437, 3.110602869834275682E-15, 0.0000000000000000000 ) ) ;
#28 = CIRCLE ( 'NONE', #205, 25.15000000000000924 ) ;
#29 = DIRECTION ( 'NONE',  ( 0.0000000000000000000, 1.000000000000000000, 0.0000000000000000000 ) ) ;
#30 = SECURITY_CLASSIFICATION ( '', '', #121 ) ;
#31 = DIRECTION ( 'NONE',  ( 1.000000000000000000, 0.0000000000000000000, 0.0000000000000000000 ) ) ;
#32 = DIRECTION ( 'NONE',  ( -1.000000000000000000, 0.0000000000000000000, 0.0000000000000000000 ) ) ;
#33 = ORIENTED_EDGE ( 'NONE', *, *, #232, .F. ) ;
#34 = DIRECTION ( 'NONE',  ( -1.000000000000000000, 1.224646799147353207E-16, 0.0000000000000000000 ) ) ;
#35 = CARTESIAN_POINT ( 'NONE',  ( 0.0000000000000000000, 0.0000000000000000000, -0.2499999999999689970 ) ) ;
#36 = DIRECTION ( 'NONE',  ( -1.224646799147353207E-16, -1.000000000000000000, 0.0000000000000000000 ) ) ;
#37 = VERTEX_POINT ( 'NONE', #200 ) ;
#38 = CC_DESIGN_PERSON_AND_ORGANIZATION_ASSIGNMENT ( #104, #252, ( #54 ) ) ;
#39 = VERTEX_POINT ( 'NONE', #84 ) ;
#40 = CC_DESIGN_DATE_AND_TIME_ASSIGNMENT ( #42, #149, ( #30 ) ) ;
#41 = VECTOR ( 'NONE', #261, 999.9999999999998863 ) ;
#42 = DATE_AND_TIME ( #185, #53 ) ;
#43 = ORGANIZATION ( 'UNSPECIFIED', 'UNSPECIFIED', '' ) ;
#44 = CARTESIAN_POINT ( 'NONE',  ( 0.0000000000000000000, 0.0000000000000000000, -2.997775367987287609 ) ) ;
#45 = MANIFOLD_SOLID_BREP ( 'TTN188108-1-solid1', #258 ) ;
#46 = CONICAL_SURFACE ( 'NONE', #182, 25.15000000000000924, 0.7853981633974621568 ) ;
#47 = DIRECTION ( 'NONE',  ( -0.0000000000000000000, -0.0000000000000000000, 1.000000000000000000 ) ) ;
#48 = PRODUCT_DEFINITION ( 'UNKNOWN', '', #150, #193 ) ;
#49 = CARTESIAN_POINT ( 'NONE',  ( -25.15000000000000924, 0.0000000000000000000, 0.0000000000000000000 ) ) ;
#50 = DIRECTION ( 'NONE',  ( 0.0000000000000000000, 0.0000000000000000000, -1.000000000000000000 ) ) ;
#51 = VERTEX_POINT ( 'NONE', #6 ) ;
#52 = PLANE ( 'NONE',  #117 ) ;
#53 = LOCAL_TIME ( 15, 26, 39.00000000000000000, #216 ) ;
#54 = PRODUCT ( 'TTN188100-E0W', 'TTN188100-E0W', '', ( #168 ) ) ;
#55 = CC_DESIGN_APPROVAL ( #26, ( #150 ) ) ;
#56 = EDGE_CURVE ( 'NONE', #190, #215, #142, .T. ) ;
#57 = PERSON_AND_ORGANIZATION_ROLE ( 'design_supplier' ) ;
#58 = EDGE_CURVE ( 'NONE', #215, #124, #151, .T. ) ;
#59 = LOCAL_TIME ( 15, 26, 39.00000000000000000, #71 ) ;
#60 = ORIENTED_EDGE ( 'NONE', *, *, #140, .T. ) ;
#61 = APPROVAL ( #145, 'UNSPECIFIED' ) ;
#62 = APPROVAL_DATE_TIME ( #122, #26 ) ;
#63 = DIRECTION ( 'NONE',  ( -1.000000000000000000, 0.0000000000000000000, 0.0000000000000000000 ) ) ;
#64 = APPROVAL_DATE_TIME ( #197, #239 ) ;
#65 = APPROVAL_PERSON_ORGANIZATION ( #219, #61, #16 ) ;
#66 = ADVANCED_FACE ( 'NONE', ( #159 ), #202, .T. ) ;
#67 = DIRECTION ( 'NONE',  ( -1.000000000000000000, 0.0000000000000000000, 0.0000000000000000000 ) ) ;
#68 = ORIENTED_EDGE ( 'NONE', *, *, #192, .T. ) ;
#69 = CARTESIAN_POINT ( 'NONE',  ( 0.0000000000000000000, 0.0000000000000000000, 0.0000000000000000000 ) ) ;
#70 = EDGE_CURVE ( 'NONE', #268, #124, #257, .T. ) ;
#71 = COORDINATED_UNIVERSAL_TIME_OFFSET ( 5, 0, .BEHIND. ) ;
#72 = DIRECTION ( 'NONE',  ( 1.000000000000000000, 0.0000000000000000000, 0.0000000000000000000 ) ) ;
#73 = CARTESIAN_POINT ( 'NONE',  ( 0.0000000000000000000, 0.0000000000000000000, 0.0000000000000000000 ) ) ;
#74 = EDGE_LOOP ( 'NONE', ( #196, #101, #120, #266 ) ) ;
#75 = AXIS2_PLACEMENT_3D ( 'NONE', #86, #240, #242 ) ;
#76 = CIRCLE ( 'NONE', #87, 25.39999999999996660 ) ;
#77 = COORDINATED_UNIVERSAL_TIME_OFFSET ( 5, 0, .BEHIND. ) ;
#78 = ORIENTED_EDGE ( 'NONE', *, *, #70, .T. ) ;
#79 = APPROVAL_STATUS ( 'not_yet_approved' ) ;
#80 = CC_DESIGN_APPROVAL ( #61, ( #48 ) ) ;
#81 = VECTOR ( 'NONE', #267, 1000.000000000000000 ) ;
#82 = VERTEX_POINT ( 'NONE', #49 ) ;
#83 = LINE ( 'NONE', #165, #174 ) ;
#84 = CARTESIAN_POINT ( 'NONE',  ( 0.0000000000000000000, 25.39999999999997016, -2.997775367987287609 ) ) ;
#85 = ORIENTED_EDGE ( 'NONE', *, *, #17, .T. ) ;
#86 = CARTESIAN_POINT ( 'NONE',  ( 0.0000000000000000000, 0.0000000000000000000, -2.997775367987287609 ) ) ;
#87 = AXIS2_PLACEMENT_3D ( 'NONE', #44, #218, #105 ) ;
#88 = VERTEX_POINT ( 'NONE', #109 ) ;
#89 = PERSON_AND_ORGANIZATION ( #194, #43 ) ;
#90 = CARTESIAN_POINT ( 'NONE',  ( 0.0000000000000000000, 0.0000000000000000000, 0.0000000000000000000 ) ) ;
#91 = CC_DESIGN_PERSON_AND_ORGANIZATION_ASSIGNMENT ( #89, #189, ( #48 ) ) ;
#92 = CARTESIAN_POINT ( 'NONE',  ( 0.0000000000000000000, 0.0000000000000000000, -2.997775367987287609 ) ) ;
#93 = ORIENTED_EDGE ( 'NONE', *, *, #232, .T. ) ;
#94 = ADVANCED_FACE ( 'NONE', ( #213 ), #253, .T. ) ;
#95 = EDGE_CURVE ( 'NONE', #190, #82, #28, .T. ) ;
#96 =( NAMED_UNIT ( * ) SI_UNIT ( $, .STERADIAN. ) SOLID_ANGLE_UNIT ( ) );
#97 = SPHERICAL_SURFACE ( 'NONE', #255, 216.9199999999999591 ) ;
#98 = LOCAL_TIME ( 15, 26, 39.00000000000000000, #138 ) ;
#99 = DIRECTION ( 'NONE',  ( 1.000000000000000000, 0.0000000000000000000, 0.0000000000000000000 ) ) ;
#100 = AXIS2_PLACEMENT_3D ( 'NONE', #90, #47, #204 ) ;
#101 = ORIENTED_EDGE ( 'NONE', *, *, #123, .F. ) ;
#102 = APPLICATION_PROTOCOL_DEFINITION ( 'international standard', 'config_control_design', 1994, #15 ) ;
#103 = AXIS2_PLACEMENT_3D ( 'NONE', #226, #34, #36 ) ;
#104 = PERSON_AND_ORGANIZATION ( #194, #43 ) ;
#105 = DIRECTION ( 'NONE',  ( 1.000000000000000000, 0.0000000000000000000, 0.0000000000000000000 ) ) ;
#106 = LINE ( 'NONE', #263, #130 ) ;
#107 = PERSON_AND_ORGANIZATION ( #194, #43 ) ;
#108 = FACE_OUTER_BOUND ( 'NONE', #179, .T. ) ;
#109 = CARTESIAN_POINT ( 'NONE',  ( 0.0000000000000000000, 1.328251918355218906E-14, -4.489999999999966462 ) ) ;
#110 = CC_DESIGN_DATE_AND_TIME_ASSIGNMENT ( #223, #231, ( #48 ) ) ;
#111 = DIRECTION ( 'NONE',  ( 0.0000000000000000000, 0.0000000000000000000, -1.000000000000000000 ) ) ;
#112 = ORIENTED_EDGE ( 'NONE', *, *, #140, .F. ) ;
#113 = FACE_OUTER_BOUND ( 'NONE', #74, .T. ) ;
#114 = DIRECTION ( 'NONE',  ( 1.000000000000000000, 0.0000000000000000000, 0.0000000000000000000 ) ) ;
#115 = DIRECTION ( 'NONE',  ( -0.7071067811865574537, 0.0000000000000000000, -0.7071067811865376918 ) ) ;
#116 = CIRCLE ( 'NONE', #100, 25.15000000000000924 ) ;
#117 = AXIS2_PLACEMENT_3D ( 'NONE', #11, #251, #211 ) ;
#118 = DIRECTION ( 'NONE',  ( 1.000000000000000000, 0.0000000000000000000, 0.0000000000000000000 ) ) ;
#119 = PERSON_AND_ORGANIZATION_ROLE ( 'creator' ) ;
#120 = ORIENTED_EDGE ( 'NONE', *, *, #237, .T. ) ;
#121 = SECURITY_CLASSIFICATION_LEVEL ( 'unclassified' ) ;
#122 = DATE_AND_TIME ( #245, #59 ) ;
#123 = EDGE_CURVE ( 'NONE', #82, #190, #116, .T. ) ;
#124 = VERTEX_POINT ( 'NONE', #222 ) ;
#125 = ORIENTED_EDGE ( 'NONE', *, *, #123, .T. ) ;
#126 = LOCAL_TIME ( 15, 26, 39.00000000000000000, #77 ) ;
#127 = CARTESIAN_POINT ( 'NONE',  ( 0.0000000000000000000, 0.0000000000000000000, -0.2499999999999689970 ) ) ;
#128 = ADVANCED_FACE ( 'NONE', ( #167 ), #97, .T. ) ;
#129 = DIRECTION ( 'NONE',  ( -0.0000000000000000000, -0.0000000000000000000, 1.000000000000000000 ) ) ;
#130 = VECTOR ( 'NONE', #241, 1000.000000000000000 ) ;
#131 = ORIENTED_EDGE ( 'NONE', *, *, #56, .T. ) ;
#132 = DIRECTION ( 'NONE',  ( -1.000000000000000000, 0.0000000000000000000, 0.0000000000000000000 ) ) ;
#133 = APPROVAL_PERSON_ORGANIZATION ( #148, #239, #19 ) ;
#134 = DATE_AND_TIME ( #153, #163 ) ;
#135 = CARTESIAN_POINT ( 'NONE',  ( 0.0000000000000000000, 0.0000000000000000000, 0.0000000000000000000 ) ) ;
#136 = EDGE_CURVE ( 'NONE', #51, #37, #220, .T. ) ;
#137 = EDGE_LOOP ( 'NONE', ( #162, #131, #33, #12 ) ) ;
#138 = COORDINATED_UNIVERSAL_TIME_OFFSET ( 5, 0, .BEHIND. ) ;
#139 = CARTESIAN_POINT ( 'NONE',  ( 25.39999999999998437, 0.0000000000000000000, -0.2499999999999689970 ) ) ;
#140 = EDGE_CURVE ( 'NONE', #268, #51, #173, .T. ) ;
#141 = APPLICATION_PROTOCOL_DEFINITION ( 'international standard', 'config_control_design', 1994, #225 ) ;
#142 = LINE ( 'NONE', #199, #41 ) ;
#143 = ORIENTED_EDGE ( 'NONE', *, *, #18, .T. ) ;
#144 = CC_DESIGN_PERSON_AND_ORGANIZATION_ASSIGNMENT ( #10, #119, ( #150 ) ) ;
#145 = APPROVAL_STATUS ( 'not_yet_approved' ) ;
#146 = APPROVAL_STATUS ( 'not_yet_approved' ) ;
#147 = ORIENTED_EDGE ( 'NONE', *, *, #156, .T. ) ;
#148 = PERSON_AND_ORGANIZATION ( #194, #43 ) ;
#149 = DATE_TIME_ROLE ( 'classification_date' ) ;
#150 = PRODUCT_DEFINITION_FORMATION_WITH_SPECIFIED_SOURCE ( 'ANY', '', #54, .NOT_KNOWN. ) ;
#151 = CIRCLE ( 'NONE', #248, 25.39999999999998437 ) ;
#152 = EDGE_LOOP ( 'NONE', ( #85, #9, #78, #93, #214 ) ) ;
#153 = CALENDAR_DATE ( 2019, 16, 12 ) ;
#154 = ORIENTED_EDGE ( 'NONE', *, *, #136, .F. ) ;
#155 = ADVANCED_FACE ( 'NONE', ( #113 ), #176, .T. ) ;
#156 = EDGE_CURVE ( 'NONE', #88, #51, #180, .T. ) ;
#157 = DIRECTION ( 'NONE',  ( 1.000000000000000000, 0.0000000000000000000, 0.0000000000000000000 ) ) ;
#158 = DIRECTION ( 'NONE',  ( -0.0000000000000000000, -0.0000000000000000000, 1.000000000000000000 ) ) ;
#159 = FACE_OUTER_BOUND ( 'NONE', #152, .T. ) ;
#160 = SPHERICAL_SURFACE ( 'NONE', #171, 216.9199999999999591 ) ;
#161 = DIRECTION ( 'NONE',  ( 0.0000000000000000000, 0.0000000000000000000, -1.000000000000000000 ) ) ;
#162 = ORIENTED_EDGE ( 'NONE', *, *, #95, .F. ) ;
#163 = LOCAL_TIME ( 15, 26, 39.00000000000000000, #198 ) ;
#164 = DIRECTION ( 'NONE',  ( 0.0000000000000000000, 0.0000000000000000000, -1.000000000000000000 ) ) ;
#165 = CARTESIAN_POINT ( 'NONE',  ( -25.15000000000000924, 0.0000000000000000000, 0.0000000000000000000 ) ) ;
#166 = AXIS2_PLACEMENT_3D ( 'NONE', #69, #111, #32 ) ;
#167 = FACE_OUTER_BOUND ( 'NONE', #262, .T. ) ;
#168 = MECHANICAL_CONTEXT ( 'NONE', #225, 'mechanical' ) ;
#169 =( LENGTH_UNIT ( ) NAMED_UNIT ( * ) SI_UNIT ( .MILLI., .METRE. ) );
#170 = ORIENTED_EDGE ( 'NONE', *, *, #17, .F. ) ;
#171 = AXIS2_PLACEMENT_3D ( 'NONE', #14, #209, #183 ) ;
#172 = CIRCLE ( 'NONE', #265, 25.39999999999998437 ) ;
#173 = CIRCLE ( 'NONE', #224, 25.39999999999996660 ) ;
#174 = VECTOR ( 'NONE', #115, 999.9999999999998863 ) ;
#175 = DIRECTION ( 'NONE',  ( 0.0000000000000000000, 0.0000000000000000000, -1.000000000000000000 ) ) ;
#176 = CONICAL_SURFACE ( 'NONE', #166, 25.15000000000000924, 0.7853981633974621568 ) ;
#177 = CC_DESIGN_PERSON_AND_ORGANIZATION_ASSIGNMENT ( #230, #57, ( #150 ) ) ;
#178 = FACE_OUTER_BOUND ( 'NONE', #203, .T. ) ;
#179 = EDGE_LOOP ( 'NONE', ( #125, #217 ) ) ;
#180 = CIRCLE ( 'NONE', #103, 216.9199999999999591 ) ;
#181 = DIRECTION ( 'NONE',  ( -0.0000000000000000000, -0.0000000000000000000, 1.000000000000000000 ) ) ;
#182 = AXIS2_PLACEMENT_3D ( 'NONE', #201, #175, #63 ) ;
#183 = DIRECTION ( 'NONE',  ( 0.0000000000000000000, 1.000000000000000000, 0.0000000000000000000 ) ) ;
#184 = ORIENTED_EDGE ( 'NONE', *, *, #24, .F. ) ;
#185 = CALENDAR_DATE ( 2019, 16, 12 ) ;
#186 = PERSON_AND_ORGANIZATION ( #194, #43 ) ;
#187 = DIRECTION ( 'NONE',  ( -1.000000000000000000, 0.0000000000000000000, 0.0000000000000000000 ) ) ;
#188 = DIRECTION ( 'NONE',  ( 0.0000000000000000000, 0.0000000000000000000, 1.000000000000000000 ) ) ;
#189 = PERSON_AND_ORGANIZATION_ROLE ( 'creator' ) ;
#190 = VERTEX_POINT ( 'NONE', #207 ) ;
#191 = CC_DESIGN_APPROVAL ( #239, ( #30 ) ) ;
#192 = EDGE_CURVE ( 'NONE', #88, #39, #249, .T. ) ;
#193 = DESIGN_CONTEXT ( 'detailed design', #15, 'design' ) ;
#194 = PERSON ( 'UNSPECIFIED', 'UNSPECIFIED', 'UNSPECIFIED', ('UNSPECIFIED'), ('UNSPECIFIED'), ('UNSPECIFIED') ) ;
#195 = CIRCLE ( 'NONE', #75, 25.39999999999996660 ) ;
#196 = ORIENTED_EDGE ( 'NONE', *, *, #56, .F. ) ;
#197 = DATE_AND_TIME ( #256, #98 ) ;
#198 = COORDINATED_UNIVERSAL_TIME_OFFSET ( 5, 0, .BEHIND. ) ;
#199 = CARTESIAN_POINT ( 'NONE',  ( 25.15000000000000924, 3.079986699855594261E-15, 0.0000000000000000000 ) ) ;
#200 = CARTESIAN_POINT ( 'NONE',  ( 25.39999999999996660, 0.0000000000000000000, -2.997775367987287609 ) ) ;
#201 = CARTESIAN_POINT ( 'NONE',  ( 0.0000000000000000000, 0.0000000000000000000, 0.0000000000000000000 ) ) ;
#202 = CYLINDRICAL_SURFACE ( 'NONE', #236, 25.39999999999998437 ) ;
#203 = EDGE_LOOP ( 'NONE', ( #243, #68, #170, #154 ) ) ;
#204 = DIRECTION ( 'NONE',  ( -1.000000000000000000, 0.0000000000000000000, 0.0000000000000000000 ) ) ;
#205 = AXIS2_PLACEMENT_3D ( 'NONE', #135, #129, #8 ) ;
#206 = CARTESIAN_POINT ( 'NONE',  ( 0.0000000000000000000, 0.0000000000000000000, -2.997775367987287609 ) ) ;
#207 = CARTESIAN_POINT ( 'NONE',  ( 25.15000000000000924, 3.095294784844934972E-15, 0.0000000000000000000 ) ) ;
#208 = ORIENTED_EDGE ( 'NONE', *, *, #58, .T. ) ;
#209 = DIRECTION ( 'NONE',  ( -1.000000000000000000, 0.0000000000000000000, 0.0000000000000000000 ) ) ;
#210 = CC_DESIGN_SECURITY_CLASSIFICATION ( #30, ( #150 ) ) ;
#211 = DIRECTION ( 'NONE',  ( -1.000000000000000000, 0.0000000000000000000, -0.0000000000000000000 ) ) ;
#212 = AXIS2_PLACEMENT_3D ( 'NONE', #270, #118, #164 ) ;
#213 = FACE_OUTER_BOUND ( 'NONE', #247, .T. ) ;
#214 = ORIENTED_EDGE ( 'NONE', *, *, #18, .F. ) ;
#215 = VERTEX_POINT ( 'NONE', #139 ) ;
#216 = COORDINATED_UNIVERSAL_TIME_OFFSET ( 5, 0, .BEHIND. ) ;
#217 = ORIENTED_EDGE ( 'NONE', *, *, #95, .T. ) ;
#218 = DIRECTION ( 'NONE',  ( -0.0000000000000000000, -0.0000000000000000000, 1.000000000000000000 ) ) ;
#219 = PERSON_AND_ORGANIZATION ( #194, #43 ) ;
#220 = CIRCLE ( 'NONE', #5, 25.39999999999996660 ) ;
#221 = SHAPE_DEFINITION_REPRESENTATION ( #238, #20 ) ;
#222 = CARTESIAN_POINT ( 'NONE',  ( -25.39999999999998437, 3.110602869834275682E-15, -0.2499999999999689970 ) ) ;
#223 = DATE_AND_TIME ( #23, #126 ) ;
#224 = AXIS2_PLACEMENT_3D ( 'NONE', #92, #250, #114 ) ;
#225 = APPLICATION_CONTEXT ( 'configuration controlled 3d designs of mechanical parts and assemblies' ) ;
#226 = CARTESIAN_POINT ( 'NONE',  ( 0.0000000000000000000, 0.0000000000000000000, 212.4299999999999784 ) ) ;
#227 =( NAMED_UNIT ( * ) PLANE_ANGLE_UNIT ( ) SI_UNIT ( $, .RADIAN. ) );
#228 = ADVANCED_FACE ( 'NONE', ( #178 ), #160, .T. ) ;
#229 = AXIS2_PLACEMENT_3D ( 'NONE', #73, #188, #99 ) ;
#230 = PERSON_AND_ORGANIZATION ( #194, #43 ) ;
#231 = DATE_TIME_ROLE ( 'creation_date' ) ;
#232 = EDGE_CURVE ( 'NONE', #124, #215, #172, .T. ) ;
#233 = PRODUCT_RELATED_PRODUCT_CATEGORY ( 'detail', '', ( #54 ) ) ;
#234 = FACE_OUTER_BOUND ( 'NONE', #137, .T. ) ;
#235 = APPROVAL_PERSON_ORGANIZATION ( #186, #26, #254 ) ;
#236 = AXIS2_PLACEMENT_3D ( 'NONE', #4, #244, #157 ) ;
#237 = EDGE_CURVE ( 'NONE', #82, #124, #83, .T. ) ;
#238 = PRODUCT_DEFINITION_SHAPE ( 'NONE', 'NONE',  #48 ) ;
#239 = APPROVAL ( #146, 'UNSPECIFIED' ) ;
#240 = DIRECTION ( 'NONE',  ( -0.0000000000000000000, -0.0000000000000000000, 1.000000000000000000 ) ) ;
#241 = DIRECTION ( 'NONE',  ( -0.0000000000000000000, -0.0000000000000000000, 1.000000000000000000 ) ) ;
#242 = DIRECTION ( 'NONE',  ( 1.000000000000000000, 0.0000000000000000000, 0.0000000000000000000 ) ) ;
#243 = ORIENTED_EDGE ( 'NONE', *, *, #156, .F. ) ;
#244 = DIRECTION ( 'NONE',  ( -0.0000000000000000000, -0.0000000000000000000, 1.000000000000000000 ) ) ;
#245 = CALENDAR_DATE ( 2019, 16, 12 ) ;
#246 = CARTESIAN_POINT ( 'NONE',  ( 0.0000000000000000000, 0.0000000000000000000, 212.4299999999999784 ) ) ;
#247 = EDGE_LOOP ( 'NONE', ( #3, #60, #21, #143, #208 ) ) ;
#248 = AXIS2_PLACEMENT_3D ( 'NONE', #127, #161, #67 ) ;
#249 = CIRCLE ( 'NONE', #212, 216.9199999999999591 ) ;
#250 = DIRECTION ( 'NONE',  ( -0.0000000000000000000, -0.0000000000000000000, 1.000000000000000000 ) ) ;
#251 = DIRECTION ( 'NONE',  ( 0.0000000000000000000, 0.0000000000000000000, -1.000000000000000000 ) ) ;
#252 = PERSON_AND_ORGANIZATION_ROLE ( 'design_owner' ) ;
#253 = CYLINDRICAL_SURFACE ( 'NONE', #260, 25.39999999999998437 ) ;
#254 = APPROVAL_ROLE ( '' ) ;
#255 = AXIS2_PLACEMENT_3D ( 'NONE', #246, #132, #29 ) ;
#256 = CALENDAR_DATE ( 2019, 16, 12 ) ;
#257 = LINE ( 'NONE', #27, #81 ) ;
#258 = CLOSED_SHELL ( 'NONE', ( #25, #128, #66, #264, #94, #228, #155 ) ) ;
#259 = APPROVAL_DATE_TIME ( #134, #61 ) ;
#260 = AXIS2_PLACEMENT_3D ( 'NONE', #7, #158, #31 ) ;
#261 = DIRECTION ( 'NONE',  ( 0.7071067811865574537, 8.659560562355054885E-17, -0.7071067811865376918 ) ) ;
#262 = EDGE_LOOP ( 'NONE', ( #22, #147, #112, #184 ) ) ;
#263 = CARTESIAN_POINT ( 'NONE',  ( 25.39999999999998437, 0.0000000000000000000, 0.0000000000000000000 ) ) ;
#264 = ADVANCED_FACE ( 'NONE', ( #108 ), #52, .F. ) ;
#265 = AXIS2_PLACEMENT_3D ( 'NONE', #35, #50, #187 ) ;
#266 = ORIENTED_EDGE ( 'NONE', *, *, #58, .F. ) ;
#267 = DIRECTION ( 'NONE',  ( -0.0000000000000000000, -0.0000000000000000000, 1.000000000000000000 ) ) ;
#268 = VERTEX_POINT ( 'NONE', #269 ) ;
#269 = CARTESIAN_POINT ( 'NONE',  ( -25.39999999999996660, 3.110602869834274104E-15, -2.997775367987287609 ) ) ;
#270 = CARTESIAN_POINT ( 'NONE',  ( 0.0000000000000000000, 0.0000000000000000000, 212.4299999999999784 ) ) ;
#271 = PERSON_AND_ORGANIZATION_ROLE ( 'classification_officer' ) ;
ENDSEC;
END-ISO-10303-21;
