ISO-10303-21;
HEADER;
FILE_DESCRIPTION (( 'STEP AP203' ),
    '1' );
FILE_NAME ('20106-E0W.STEP',
    '2009-09-14T20:24:48',
    ( 'Admin' ),
    ( 'Thorlabs, Inc.' ),
    'SwSTEP 2.0',
    'SolidWorks 2007',
    '' );
FILE_SCHEMA (( 'CONFIG_CONTROL_DESIGN' ));
ENDSEC;

DATA;
#1 = ORIENTED_EDGE ( 'NONE', *, *, #19, .T. ) ;
#2 = EDGE_CURVE ( 'NONE', #3, #4, #122, .T. ) ;
#3 = VERTEX_POINT ( 'NONE', #78 ) ;
#4 = VERTEX_POINT ( 'NONE', #95 ) ;
#5 = PRODUCT ( '20106-E0W', '20106-E0W', '', ( #10 ) ) ;
#6 = LOCAL_TIME ( 16, 24, 48.00000000000000000, #7 ) ;
#7 = COORDINATED_UNIVERSAL_TIME_OFFSET ( 5, 0, .BEHIND. ) ;
#8 = APPLICATION_PROTOCOL_DEFINITION ( 'international standard', 'config_control_design', 1994, #9 ) ;
#9 = APPLICATION_CONTEXT ( 'configuration controlled 3d designs of mechanical parts and assemblies' ) ;
#10 = MECHANICAL_CONTEXT ( 'NONE', #9, 'mechanical' ) ;
#11 = APPROVAL ( #64, 'UNSPECIFIED' ) ;
#12 = APPROVAL_PERSON_ORGANIZATION ( #65, #11, #13 ) ;
#13 = APPROVAL_ROLE ( '' ) ;
#14 = PERSON ( 'UNSPECIFIED', 'UNSPECIFIED', 'UNSPECIFIED', ('UNSPECIFIED'), ('UNSPECIFIED'), ('UNSPECIFIED') ) ;
#15 = CC_DESIGN_APPROVAL ( #11, ( #66 ) ) ;
#16 = CALENDAR_DATE ( 2009, 14, 9 ) ;
#17 = DATE_AND_TIME ( #16, #6 ) ;
#18 = APPROVAL_DATE_TIME ( #17, #11 ) ;
#19 = EDGE_CURVE ( 'NONE', #4, #20, #84, .T. ) ;
#20 = VERTEX_POINT ( 'NONE', #128 ) ;
#21 = ORIENTED_EDGE ( 'NONE', *, *, #26, .F. ) ;
#22 = MANIFOLD_SOLID_BREP ( 'NONE', #31 ) ;
#23 = EDGE_LOOP ( 'NONE', ( #25, #1, #21, #28 ) ) ;
#24 = ADVANCED_FACE ( 'NONE', ( #148 ), #130, .T. ) ;
#25 = ORIENTED_EDGE ( 'NONE', *, *, #2, .T. ) ;
#26 = EDGE_CURVE ( 'NONE', #27, #20, #73, .T. ) ;
#27 = VERTEX_POINT ( 'NONE', #74 ) ;
#28 = ORIENTED_EDGE ( 'NONE', *, *, #47, .F. ) ;
#29 = ORIENTED_EDGE ( 'NONE', *, *, #53, .F. ) ;
#30 = ORIENTED_EDGE ( 'NONE', *, *, #52, .F. ) ;
#31 = CLOSED_SHELL ( 'NONE', ( #24, #46, #50, #38, #34 ) ) ;
#32 = EDGE_LOOP ( 'NONE', ( #35, #36, #48, #30 ) ) ;
#33 = EDGE_CURVE ( 'NONE', #4, #3, #147, .T. ) ;
#34 = ADVANCED_FACE ( 'NONE', ( #117 ), #99, .T. ) ;
#35 = ORIENTED_EDGE ( 'NONE', *, *, #19, .F. ) ;
#36 = ORIENTED_EDGE ( 'NONE', *, *, #33, .T. ) ;
#37 = EDGE_LOOP ( 'NONE', ( #29, #54, #43 ) ) ;
#38 = ADVANCED_FACE ( 'NONE', ( #118 ), #132, .T. ) ;
#39 = ORIENTED_EDGE ( 'NONE', *, *, #49, .F. ) ;
#40 = ORIENTED_EDGE ( 'NONE', *, *, #53, .T. ) ;
#41 = ORIENTED_EDGE ( 'NONE', *, *, #26, .T. ) ;
#42 = EDGE_LOOP ( 'NONE', ( #39, #40, #45 ) ) ;
#43 = ORIENTED_EDGE ( 'NONE', *, *, #2, .F. ) ;
#44 = EDGE_LOOP ( 'NONE', ( #41, #51 ) ) ;
#45 = ORIENTED_EDGE ( 'NONE', *, *, #33, .F. ) ;
#46 = ADVANCED_FACE ( 'NONE', ( #94 ), #96, .T. ) ;
#47 = EDGE_CURVE ( 'NONE', #3, #27, #124, .T. ) ;
#48 = ORIENTED_EDGE ( 'NONE', *, *, #47, .T. ) ;
#49 = EDGE_CURVE ( 'NONE', #55, #4, #109, .T. ) ;
#50 = ADVANCED_FACE ( 'NONE', ( #110 ), #104, .T. ) ;
#51 = ORIENTED_EDGE ( 'NONE', *, *, #52, .T. ) ;
#52 = EDGE_CURVE ( 'NONE', #20, #27, #83, .T. ) ;
#53 = EDGE_CURVE ( 'NONE', #55, #3, #143, .T. ) ;
#54 = ORIENTED_EDGE ( 'NONE', *, *, #49, .T. ) ;
#55 = VERTEX_POINT ( 'NONE', #138 ) ;
#56 = AXIS2_PLACEMENT_3D ( 'NONE', #129, #61, #113 ) ;
#57 = CARTESIAN_POINT ( 'NONE',  ( 0.0000000000000000000, 3.147238329323510100E-016, -2.000000000000000000 ) ) ;
#58 = AXIS2_PLACEMENT_3D ( 'NONE', #57, #98, #97 ) ;
#59 = DIRECTION ( 'NONE',  ( 0.0000000000000000000, 3.061515884555943100E-016, -1.000000000000000000 ) ) ;
#60 = CARTESIAN_POINT ( 'NONE',  ( 1.555250069354419100E-015, -12.69999999999999900, -2.000000000000004000 ) ) ;
#61 = DIRECTION ( 'NONE',  ( 0.0000000000000000000, 3.061515884555943100E-016, -1.000000000000000000 ) ) ;
#62 = DIRECTION ( 'NONE',  ( 0.0000000000000000000, 1.000000000000000000, 3.073328992872296400E-016 ) ) ;
#63 = DIRECTION ( 'NONE',  ( 0.0000000000000000000, 3.061515884555943100E-016, -1.000000000000000000 ) ) ;
#64 = APPROVAL_STATUS ( 'not_yet_approved' ) ;
#65 = PERSON_AND_ORGANIZATION ( #14, #72 ) ;
#66 = PRODUCT_DEFINITION ( 'UNKNOWN', '', #188, #67 ) ;
#67 = DESIGN_CONTEXT ( 'detailed design', #69, 'design' ) ;
#68 = APPLICATION_PROTOCOL_DEFINITION ( 'international standard', 'config_control_design', 1994, #69 ) ;
#69 = APPLICATION_CONTEXT ( 'configuration controlled 3d designs of mechanical parts and assemblies' ) ;
#70 = CC_DESIGN_PERSON_AND_ORGANIZATION_ASSIGNMENT ( #114, #71, ( #5 ) ) ;
#71 = PERSON_AND_ORGANIZATION_ROLE ( 'design_owner' ) ;
#72 = ORGANIZATION ( 'UNSPECIFIED', 'UNSPECIFIED', '' ) ;
#73 = CIRCLE ( 'NONE', #134, 12.69999999999999900 ) ;
#74 = CARTESIAN_POINT ( 'NONE',  ( 0.0000000000000000000, 12.69999999999999900, -2.000000000000000000 ) ) ;
#75 = UNCERTAINTY_MEASURE_WITH_UNIT (LENGTH_MEASURE( 1.000000000000000100E-005 ), #137, 'distance_accuracy_value', 'NONE');
#76 =( NAMED_UNIT ( * ) SI_UNIT ( $, .STERADIAN. ) SOLID_ANGLE_UNIT ( ) );
#77 =( NAMED_UNIT ( * ) PLANE_ANGLE_UNIT ( ) SI_UNIT ( $, .RADIAN. ) );
#78 = CARTESIAN_POINT ( 'NONE',  ( 0.0000000000000000000, 12.69999999999987100, 1.642104365026986200 ) ) ;
#79 = DIRECTION ( 'NONE',  ( 0.0000000000000000000, 1.000000000000000000, 3.073328992872296400E-016 ) ) ;
#80 = DIRECTION ( 'NONE',  ( 0.0000000000000000000, 3.061515884555943100E-016, -1.000000000000000000 ) ) ;
#81 = CARTESIAN_POINT ( 'NONE',  ( 0.0000000000000000000, 3.147238329323521900E-016, -2.000000000000004000 ) ) ;
#82 = AXIS2_PLACEMENT_3D ( 'NONE', #81, #80, #79 ) ;
#83 = CIRCLE ( 'NONE', #82, 12.69999999999999900 ) ;
#84 = LINE ( 'NONE', #60, #89 ) ;
#85 = DIRECTION ( 'NONE',  ( 1.000000000000000000, 0.0000000000000000000, 0.0000000000000000000 ) ) ;
#86 = DIRECTION ( 'NONE',  ( 0.0000000000000000000, 0.0000000000000000000, 1.000000000000000000 ) ) ;
#87 = CARTESIAN_POINT ( 'NONE',  ( 0.0000000000000000000, 0.0000000000000000000, 0.0000000000000000000 ) ) ;
#88 = AXIS2_PLACEMENT_3D ( 'NONE', #87, #86, #85 ) ;
#89 = VECTOR ( 'NONE', #59, 1000.000000000000000 ) ;
#90 = CARTESIAN_POINT ( 'NONE',  ( 0.0000000000000000000, 2.670621536415839900E-014, -223.5099999999999900 ) ) ;
#91 = DIRECTION ( 'NONE',  ( 0.0000000000000000000, 1.000000000000000000, 2.461582689515224600E-016 ) ) ;
#92 = DIRECTION ( 'NONE',  ( 1.000000000000000000, 0.0000000000000000000, 0.0000000000000000000 ) ) ;
#93 = CARTESIAN_POINT ( 'NONE',  ( 0.0000000000000000000, 2.670621536415839900E-014, -223.5099999999999900 ) ) ;
#94 = FACE_OUTER_BOUND ( 'NONE', #37, .T. ) ;
#95 = CARTESIAN_POINT ( 'NONE',  ( 1.555250069354403500E-015, -12.69999999999991400, 1.642104365026982200 ) ) ;
#96 = SPHERICAL_SURFACE ( 'NONE', #127, 225.5099999999999900 ) ;
#97 = DIRECTION ( 'NONE',  ( 0.0000000000000000000, 1.000000000000000000, 3.073328992872296400E-016 ) ) ;
#98 = DIRECTION ( 'NONE',  ( 0.0000000000000000000, 3.061515884555943100E-016, -1.000000000000000000 ) ) ;
#99 = CYLINDRICAL_SURFACE ( 'NONE', #131, 12.69999999999999900 ) ;
#100 = DIRECTION ( 'NONE',  ( 0.0000000000000000000, 1.000000000000000000, 3.061515884555943100E-016 ) ) ;
#101 = DIRECTION ( 'NONE',  ( 0.0000000000000000000, 3.061515884555943100E-016, -1.000000000000000000 ) ) ;
#102 = CARTESIAN_POINT ( 'NONE',  ( 0.0000000000000000000, 3.147238329323515500E-016, -2.000000000000001800 ) ) ;
#103 = AXIS2_PLACEMENT_3D ( 'NONE', #102, #101, #100 ) ;
#104 = PLANE ( 'NONE',  #103 ) ;
#105 = DIRECTION ( 'NONE',  ( -1.224606353822377300E-016, 1.000000000000000000, 0.0000000000000000000 ) ) ;
#106 = DIRECTION ( 'NONE',  ( 1.000000000000000000, 1.224606353822377300E-016, 3.749151804555343600E-032 ) ) ;
#107 = CARTESIAN_POINT ( 'NONE',  ( 0.0000000000000000000, 2.670621536415839900E-014, -223.5099999999999900 ) ) ;
#108 = AXIS2_PLACEMENT_3D ( 'NONE', #107, #106, #105 ) ;
#109 = CIRCLE ( 'NONE', #108, 225.5099999999999900 ) ;
#110 = FACE_OUTER_BOUND ( 'NONE', #44, .T. ) ;
#111 = DIRECTION ( 'NONE',  ( 0.0000000000000000000, 3.061515884555943100E-016, -1.000000000000000000 ) ) ;
#112 = VECTOR ( 'NONE', #111, 1000.000000000000000 ) ;
#113 = DIRECTION ( 'NONE',  ( 0.0000000000000000000, 1.000000000000000000, 3.073328992872295400E-016 ) ) ;
#114 = PERSON_AND_ORGANIZATION ( #14, #72 ) ;
#115 = ADVANCED_BREP_SHAPE_REPRESENTATION ( '20106-E0W', ( #22, #88 ), #116 ) ;
#116 =( GEOMETRIC_REPRESENTATION_CONTEXT ( 3 ) GLOBAL_UNCERTAINTY_ASSIGNED_CONTEXT ( ( #75 ) ) GLOBAL_UNIT_ASSIGNED_CONTEXT ( ( #137, #77, #76 ) ) REPRESENTATION_CONTEXT ( 'NONE', 'WORKASPACE' ) );
#117 = FACE_OUTER_BOUND ( 'NONE', #32, .T. ) ;
#118 = FACE_OUTER_BOUND ( 'NONE', #42, .T. ) ;
#119 = DIRECTION ( 'NONE',  ( 0.0000000000000000000, 1.000000000000000000, 3.073328992872296400E-016 ) ) ;
#120 = DIRECTION ( 'NONE',  ( 0.0000000000000000000, 3.061515884555943100E-016, -1.000000000000000000 ) ) ;
#121 = CARTESIAN_POINT ( 'NONE',  ( 0.0000000000000000000, 3.147238329323510100E-016, -2.000000000000000000 ) ) ;
#122 = CIRCLE ( 'NONE', #56, 12.70000000000000300 ) ;
#123 = CARTESIAN_POINT ( 'NONE',  ( 0.0000000000000000000, 12.69999999999999900, -1.999999999999996200 ) ) ;
#124 = LINE ( 'NONE', #123, #112 ) ;
#125 = DIRECTION ( 'NONE',  ( 0.0000000000000000000, 1.000000000000000000, 2.461582689515224600E-016 ) ) ;
#126 = DIRECTION ( 'NONE',  ( 1.000000000000000000, 0.0000000000000000000, 0.0000000000000000000 ) ) ;
#127 = AXIS2_PLACEMENT_3D ( 'NONE', #90, #126, #125 ) ;
#128 = CARTESIAN_POINT ( 'NONE',  ( 1.555250069354419100E-015, -12.69999999999999900, -2.000000000000008000 ) ) ;
#129 = CARTESIAN_POINT ( 'NONE',  ( 0.0000000000000000000, -8.003122037417132900E-016, 1.642104365026982200 ) ) ;
#130 = CYLINDRICAL_SURFACE ( 'NONE', #58, 12.69999999999999900 ) ;
#131 = AXIS2_PLACEMENT_3D ( 'NONE', #121, #120, #119 ) ;
#132 = SPHERICAL_SURFACE ( 'NONE', #136, 225.5099999999999900 ) ;
#133 = CARTESIAN_POINT ( 'NONE',  ( 0.0000000000000000000, 3.147238329323521900E-016, -2.000000000000004000 ) ) ;
#134 = AXIS2_PLACEMENT_3D ( 'NONE', #133, #63, #62 ) ;
#135 = DIRECTION ( 'NONE',  ( 0.0000000000000000000, 1.000000000000000000, 3.073328992872295400E-016 ) ) ;
#136 = AXIS2_PLACEMENT_3D ( 'NONE', #93, #92, #91 ) ;
#137 =( LENGTH_UNIT ( ) NAMED_UNIT ( * ) SI_UNIT ( .MILLI., .METRE. ) );
#138 = CARTESIAN_POINT ( 'NONE',  ( 0.0000000000000000000, -2.852598040593845400E-014, 2.000000000000001800 ) ) ;
#139 = DIRECTION ( 'NONE',  ( 0.0000000000000000000, 0.0000000000000000000, 1.000000000000000000 ) ) ;
#140 = DIRECTION ( 'NONE',  ( -1.000000000000000000, 0.0000000000000000000, 0.0000000000000000000 ) ) ;
#141 = CARTESIAN_POINT ( 'NONE',  ( 0.0000000000000000000, 2.670621536415839900E-014, -223.5099999999999900 ) ) ;
#142 = AXIS2_PLACEMENT_3D ( 'NONE', #141, #140, #139 ) ;
#143 = CIRCLE ( 'NONE', #142, 225.5099999999999900 ) ;
#144 = DIRECTION ( 'NONE',  ( 0.0000000000000000000, 3.061515884555943100E-016, -1.000000000000000000 ) ) ;
#145 = CARTESIAN_POINT ( 'NONE',  ( 0.0000000000000000000, -8.003122037417132900E-016, 1.642104365026982200 ) ) ;
#146 = AXIS2_PLACEMENT_3D ( 'NONE', #145, #144, #135 ) ;
#147 = CIRCLE ( 'NONE', #146, 12.70000000000000300 ) ;
#148 = FACE_OUTER_BOUND ( 'NONE', #23, .T. ) ;
#149 = PRODUCT_RELATED_PRODUCT_CATEGORY ( 'detail', '', ( #5 ) ) ;
#150 = PERSON_AND_ORGANIZATION_ROLE ( 'design_supplier' ) ;
#151 = CC_DESIGN_SECURITY_CLASSIFICATION ( #180, ( #188 ) ) ;
#152 = CC_DESIGN_APPROVAL ( #172, ( #180 ) ) ;
#153 = APPROVAL_DATE_TIME ( #154, #172 ) ;
#154 = DATE_AND_TIME ( #155, #168 ) ;
#155 = CALENDAR_DATE ( 2009, 14, 9 ) ;
#156 = COORDINATED_UNIVERSAL_TIME_OFFSET ( 5, 0, .BEHIND. ) ;
#157 = DATE_TIME_ROLE ( 'classification_date' ) ;
#158 = DATE_AND_TIME ( #159, #160 ) ;
#159 = CALENDAR_DATE ( 2009, 14, 9 ) ;
#160 = LOCAL_TIME ( 16, 24, 48.00000000000000000, #161 ) ;
#161 = COORDINATED_UNIVERSAL_TIME_OFFSET ( 5, 0, .BEHIND. ) ;
#162 = PERSON_AND_ORGANIZATION ( #14, #72 ) ;
#163 = CC_DESIGN_APPROVAL ( #189, ( #188 ) ) ;
#164 = PERSON_AND_ORGANIZATION ( #14, #72 ) ;
#165 = CC_DESIGN_DATE_AND_TIME_ASSIGNMENT ( #158, #157, ( #180 ) ) ;
#166 = PERSON_AND_ORGANIZATION_ROLE ( 'creator' ) ;
#167 = CC_DESIGN_DATE_AND_TIME_ASSIGNMENT ( #200, #201, ( #66 ) ) ;
#168 = LOCAL_TIME ( 16, 24, 48.00000000000000000, #169 ) ;
#169 = COORDINATED_UNIVERSAL_TIME_OFFSET ( 5, 0, .BEHIND. ) ;
#170 = APPROVAL_PERSON_ORGANIZATION ( #164, #172, #171 ) ;
#171 = APPROVAL_ROLE ( '' ) ;
#172 = APPROVAL ( #173, 'UNSPECIFIED' ) ;
#173 = APPROVAL_STATUS ( 'not_yet_approved' ) ;
#174 = CC_DESIGN_PERSON_AND_ORGANIZATION_ASSIGNMENT ( #182, #175, ( #188 ) ) ;
#175 = PERSON_AND_ORGANIZATION_ROLE ( 'creator' ) ;
#176 = PERSON_AND_ORGANIZATION ( #14, #72 ) ;
#177 = APPROVAL_STATUS ( 'not_yet_approved' ) ;
#178 = CALENDAR_DATE ( 2009, 14, 9 ) ;
#179 = PERSON_AND_ORGANIZATION ( #14, #72 ) ;
#180 = SECURITY_CLASSIFICATION ( '', '', #191 ) ;
#181 = APPROVAL_ROLE ( '' ) ;
#182 = PERSON_AND_ORGANIZATION ( #14, #72 ) ;
#183 = CC_DESIGN_PERSON_AND_ORGANIZATION_ASSIGNMENT ( #190, #150, ( #188 ) ) ;
#184 = CALENDAR_DATE ( 2009, 14, 9 ) ;
#185 = LOCAL_TIME ( 16, 24, 48.00000000000000000, #187 ) ;
#186 = DATE_AND_TIME ( #184, #185 ) ;
#187 = COORDINATED_UNIVERSAL_TIME_OFFSET ( 5, 0, .BEHIND. ) ;
#188 = PRODUCT_DEFINITION_FORMATION_WITH_SPECIFIED_SOURCE ( 'ANY', '', #5, .NOT_KNOWN. ) ;
#189 = APPROVAL ( #177, 'UNSPECIFIED' ) ;
#190 = PERSON_AND_ORGANIZATION ( #14, #72 ) ;
#191 = SECURITY_CLASSIFICATION_LEVEL ( 'unclassified' ) ;
#192 = APPROVAL_DATE_TIME ( #186, #189 ) ;
#193 = APPROVAL_PERSON_ORGANIZATION ( #162, #189, #181 ) ;
#194 = CC_DESIGN_PERSON_AND_ORGANIZATION_ASSIGNMENT ( #176, #166, ( #66 ) ) ;
#195 = CC_DESIGN_PERSON_AND_ORGANIZATION_ASSIGNMENT ( #179, #196, ( #180 ) ) ;
#196 = PERSON_AND_ORGANIZATION_ROLE ( 'classification_officer' ) ;
#197 = SHAPE_DEFINITION_REPRESENTATION ( #198, #115 ) ;
#198 = PRODUCT_DEFINITION_SHAPE ( 'NONE', 'NONE',  #66 ) ;
#199 = LOCAL_TIME ( 16, 24, 48.00000000000000000, #156 ) ;
#200 = DATE_AND_TIME ( #178, #199 ) ;
#201 = DATE_TIME_ROLE ( 'creation_date' ) ;
ENDSEC;
END-ISO-10303-21;
