ISO-10303-21;
HEADER;
FILE_DESCRIPTION (( 'STEP AP203' ),
    '1' );
FILE_NAME ('Web Model 66193.STEP',
    '2017-01-31T19:35:33',
    ( '' ),
    ( '' ),
    'SwSTEP 2.0',
    'SolidWorks 2016',
    '' );
FILE_SCHEMA (( 'CONFIG_CONTROL_DESIGN' ));
ENDSEC;

DATA;
#1 = ORIENTED_EDGE ( 'NONE', *, *, #79, .F. ) ;
#2 = AXIS2_PLACEMENT_3D ( 'NONE', #116, #78, #5 ) ;
#3 = COORDINATED_UNIVERSAL_TIME_OFFSET ( 5, 0, .BEHIND. ) ;
#4 = ORIENTED_EDGE ( 'NONE', *, *, #45, .F. ) ;
#5 = DIRECTION ( 'NONE',  ( -1.000000000000000000, 0.0000000000000000000, 0.0000000000000000000 ) ) ;
#6 = PERSON_AND_ORGANIZATION_ROLE ( 'classification_officer' ) ;
#7 = DIRECTION ( 'NONE',  ( 0.0000000000000000000, 0.0000000000000000000, 1.000000000000000000 ) ) ;
#8 = SECURITY_CLASSIFICATION_LEVEL ( 'unclassified' ) ;
#9 = APPROVAL_PERSON_ORGANIZATION ( #65, #162, #172 ) ;
#10 = ORIENTED_EDGE ( 'NONE', *, *, #165, .T. ) ;
#11 = CC_DESIGN_PERSON_AND_ORGANIZATION_ASSIGNMENT ( #17, #163, ( #140 ) ) ;
#12 = FACE_OUTER_BOUND ( 'NONE', #111, .T. ) ;
#13 = APPROVAL ( #29, 'UNSPECIFIED' ) ;
#14 = PERSON_AND_ORGANIZATION ( #145, #144 ) ;
#15 = EDGE_LOOP ( 'NONE', ( #85, #4 ) ) ;
#16 = VERTEX_POINT ( 'NONE', #64 ) ;
#17 = PERSON_AND_ORGANIZATION ( #145, #144 ) ;
#18 = VERTEX_POINT ( 'NONE', #36 ) ;
#19 = SECURITY_CLASSIFICATION ( '', '', #8 ) ;
#20 = DIRECTION ( 'NONE',  ( 1.000000000000000000, 0.0000000000000000000, 0.0000000000000000000 ) ) ;
#21 = VERTEX_POINT ( 'NONE', #48 ) ;
#22 = CARTESIAN_POINT ( 'NONE',  ( 0.0000000000000000000, 0.0000000000000000000, 0.2000000000000000100 ) ) ;
#23 = AXIS2_PLACEMENT_3D ( 'NONE', #41, #27, #69 ) ;
#24 = CARTESIAN_POINT ( 'NONE',  ( 0.0000000000000000000, 0.0000000000000000000, 0.2000000000000000100 ) ) ;
#25 = CARTESIAN_POINT ( 'NONE',  ( 0.0000000000000000000, 0.0000000000000000000, 0.2000000000000000100 ) ) ;
#26 = DIRECTION ( 'NONE',  ( 1.000000000000000000, 0.0000000000000000000, -0.0000000000000000000 ) ) ;
#27 = DIRECTION ( 'NONE',  ( 0.0000000000000000000, 0.0000000000000000000, 1.000000000000000000 ) ) ;
#28 = AXIS2_PLACEMENT_3D ( 'NONE', #107, #105, #67 ) ;
#29 = APPROVAL_STATUS ( 'not_yet_approved' ) ;
#30 = COORDINATED_UNIVERSAL_TIME_OFFSET ( 5, 0, .BEHIND. ) ;
#31 = MANIFOLD_SOLID_BREP ( 'Extrude1', #72 ) ;
#32 = CC_DESIGN_APPROVAL ( #106, ( #98 ) ) ;
#33 = PRODUCT_DEFINITION_SHAPE ( 'NONE', 'NONE',  #98 ) ;
#34 = APPROVAL_DATE_TIME ( #61, #13 ) ;
#35 = PRODUCT_RELATED_PRODUCT_CATEGORY ( 'detail', '', ( #50 ) ) ;
#36 = CARTESIAN_POINT ( 'NONE',  ( -5.000000000000000000, 0.0000000000000000000, 0.0000000000000000000 ) ) ;
#37 = LOCAL_TIME ( 14, 35, 33.00000000000000000, #3 ) ;
#38 = VERTEX_POINT ( 'NONE', #168 ) ;
#39 = CC_DESIGN_DATE_AND_TIME_ASSIGNMENT ( #142, #133, ( #19 ) ) ;
#40 =( LENGTH_UNIT ( ) NAMED_UNIT ( * ) SI_UNIT ( .MILLI., .METRE. ) );
#41 = CARTESIAN_POINT ( 'NONE',  ( 0.0000000000000000000, 0.0000000000000000000, 0.0000000000000000000 ) ) ;
#42 = CIRCLE ( 'NONE', #28, 5.000000000000000000 ) ;
#43 = CC_DESIGN_PERSON_AND_ORGANIZATION_ASSIGNMENT ( #46, #83, ( #50 ) ) ;
#44 = LINE ( 'NONE', #66, #109 ) ;
#45 = EDGE_CURVE ( 'NONE', #16, #18, #154, .T. ) ;
#46 = PERSON_AND_ORGANIZATION ( #145, #144 ) ;
#47 = FACE_OUTER_BOUND ( 'NONE', #49, .T. ) ;
#48 = CARTESIAN_POINT ( 'NONE',  ( -5.000000000000000000, 0.0000000000000000000, 0.2000000000000000100 ) ) ;
#49 = EDGE_LOOP ( 'NONE', ( #121, #94, #103, #52 ) ) ;
#50 = PRODUCT ( 'Web Model 66193', 'Web Model 66193', '', ( #134 ) ) ;
#51 = DIRECTION ( 'NONE',  ( 0.0000000000000000000, 0.0000000000000000000, 1.000000000000000000 ) ) ;
#52 = ORIENTED_EDGE ( 'NONE', *, *, #149, .F. ) ;
#53 = CARTESIAN_POINT ( 'NONE',  ( 0.0000000000000000000, 0.0000000000000000000, 0.0000000000000000000 ) ) ;
#54 = CC_DESIGN_PERSON_AND_ORGANIZATION_ASSIGNMENT ( #152, #147, ( #98 ) ) ;
#55 = DATE_TIME_ROLE ( 'creation_date' ) ;
#56 = PERSON_AND_ORGANIZATION ( #145, #144 ) ;
#57 = ORIENTED_EDGE ( 'NONE', *, *, #79, .T. ) ;
#58 = DATE_AND_TIME ( #59, #169 ) ;
#59 = CALENDAR_DATE ( 2017, 31, 1 ) ;
#60 = PLANE ( 'NONE',  #136 ) ;
#61 = DATE_AND_TIME ( #76, #37 ) ;
#62 = APPROVAL_PERSON_ORGANIZATION ( #100, #106, #173 ) ;
#63 = DIRECTION ( 'NONE',  ( 1.000000000000000000, 0.0000000000000000000, 0.0000000000000000000 ) ) ;
#64 = CARTESIAN_POINT ( 'NONE',  ( 5.000000000000000000, 6.123233995736766300E-016, 0.0000000000000000000 ) ) ;
#65 = PERSON_AND_ORGANIZATION ( #145, #144 ) ;
#66 = CARTESIAN_POINT ( 'NONE',  ( -5.000000000000000000, 0.0000000000000000000, 0.2000000000000000100 ) ) ;
#67 = DIRECTION ( 'NONE',  ( 1.000000000000000000, 0.0000000000000000000, 0.0000000000000000000 ) ) ;
#68 = PERSON_AND_ORGANIZATION_ROLE ( 'design_supplier' ) ;
#69 = DIRECTION ( 'NONE',  ( 1.000000000000000000, 0.0000000000000000000, 0.0000000000000000000 ) ) ;
#70 = COORDINATED_UNIVERSAL_TIME_OFFSET ( 5, 0, .BEHIND. ) ;
#71 =( GEOMETRIC_REPRESENTATION_CONTEXT ( 3 ) GLOBAL_UNCERTAINTY_ASSIGNED_CONTEXT ( ( #174 ) ) GLOBAL_UNIT_ASSIGNED_CONTEXT ( ( #40, #80, #158 ) ) REPRESENTATION_CONTEXT ( 'NONE', 'WORKASPACE' ) );
#72 = CLOSED_SHELL ( 'NONE', ( #113, #73, #175, #123 ) ) ;
#73 = ADVANCED_FACE ( 'NONE', ( #12 ), #135, .T. ) ;
#74 = CC_DESIGN_PERSON_AND_ORGANIZATION_ASSIGNMENT ( #102, #6, ( #19 ) ) ;
#75 = EDGE_CURVE ( 'NONE', #18, #16, #122, .T. ) ;
#76 = CALENDAR_DATE ( 2017, 31, 1 ) ;
#77 = DIRECTION ( 'NONE',  ( -1.000000000000000000, 0.0000000000000000000, 0.0000000000000000000 ) ) ;
#78 = DIRECTION ( 'NONE',  ( -0.0000000000000000000, -0.0000000000000000000, -1.000000000000000000 ) ) ;
#79 = EDGE_CURVE ( 'NONE', #21, #38, #146, .T. ) ;
#80 =( NAMED_UNIT ( * ) PLANE_ANGLE_UNIT ( ) SI_UNIT ( $, .RADIAN. ) );
#81 = APPROVAL_STATUS ( 'not_yet_approved' ) ;
#82 = CALENDAR_DATE ( 2017, 31, 1 ) ;
#83 = PERSON_AND_ORGANIZATION_ROLE ( 'design_owner' ) ;
#84 = AXIS2_PLACEMENT_3D ( 'NONE', #25, #7, #26 ) ;
#85 = ORIENTED_EDGE ( 'NONE', *, *, #75, .F. ) ;
#86 = LOCAL_TIME ( 14, 35, 33.00000000000000000, #93 ) ;
#87 = ORIENTED_EDGE ( 'NONE', *, *, #91, .F. ) ;
#88 = CC_DESIGN_APPROVAL ( #13, ( #19 ) ) ;
#89 = VECTOR ( 'NONE', #115, 1000.000000000000000 ) ;
#90 = DIRECTION ( 'NONE',  ( 0.0000000000000000000, 0.0000000000000000000, 1.000000000000000000 ) ) ;
#91 = EDGE_CURVE ( 'NONE', #38, #16, #153, .T. ) ;
#92 = DIRECTION ( 'NONE',  ( -0.0000000000000000000, -0.0000000000000000000, -1.000000000000000000 ) ) ;
#93 = COORDINATED_UNIVERSAL_TIME_OFFSET ( 5, 0, .BEHIND. ) ;
#94 = ORIENTED_EDGE ( 'NONE', *, *, #91, .T. ) ;
#95 = APPLICATION_PROTOCOL_DEFINITION ( 'international standard', 'config_control_design', 1994, #131 ) ;
#96 = APPROVAL_DATE_TIME ( #127, #106 ) ;
#97 = CALENDAR_DATE ( 2017, 31, 1 ) ;
#98 = PRODUCT_DEFINITION ( 'UNKNOWN', '', #140, #141 ) ;
#99 = ADVANCED_BREP_SHAPE_REPRESENTATION ( 'Web Model 66193', ( #31, #23 ), #71 ) ;
#100 = PERSON_AND_ORGANIZATION ( #145, #144 ) ;
#101 = DIRECTION ( 'NONE',  ( 1.000000000000000000, 0.0000000000000000000, -0.0000000000000000000 ) ) ;
#102 = PERSON_AND_ORGANIZATION ( #145, #144 ) ;
#103 = ORIENTED_EDGE ( 'NONE', *, *, #45, .T. ) ;
#104 = COORDINATED_UNIVERSAL_TIME_OFFSET ( 5, 0, .BEHIND. ) ;
#105 = DIRECTION ( 'NONE',  ( 0.0000000000000000000, 0.0000000000000000000, 1.000000000000000000 ) ) ;
#106 = APPROVAL ( #81, 'UNSPECIFIED' ) ;
#107 = CARTESIAN_POINT ( 'NONE',  ( 0.0000000000000000000, 0.0000000000000000000, 0.2000000000000000100 ) ) ;
#108 = FACE_OUTER_BOUND ( 'NONE', #15, .T. ) ;
#109 = VECTOR ( 'NONE', #132, 1000.000000000000000 ) ;
#110 = AXIS2_PLACEMENT_3D ( 'NONE', #53, #51, #63 ) ;
#111 = EDGE_LOOP ( 'NONE', ( #87, #1, #164, #156 ) ) ;
#112 = FACE_OUTER_BOUND ( 'NONE', #139, .T. ) ;
#113 = ADVANCED_FACE ( 'NONE', ( #47 ), #151, .T. ) ;
#114 = APPROVAL_PERSON_ORGANIZATION ( #14, #13, #119 ) ;
#115 = DIRECTION ( 'NONE',  ( -0.0000000000000000000, -0.0000000000000000000, -1.000000000000000000 ) ) ;
#116 = CARTESIAN_POINT ( 'NONE',  ( 0.0000000000000000000, 0.0000000000000000000, 0.2000000000000000100 ) ) ;
#117 = CC_DESIGN_PERSON_AND_ORGANIZATION_ASSIGNMENT ( #56, #68, ( #140 ) ) ;
#118 = APPLICATION_CONTEXT ( 'configuration controlled 3d designs of mechanical parts and assemblies' ) ;
#119 = APPROVAL_ROLE ( '' ) ;
#120 = AXIS2_PLACEMENT_3D ( 'NONE', #24, #92, #77 ) ;
#121 = ORIENTED_EDGE ( 'NONE', *, *, #165, .F. ) ;
#122 = CIRCLE ( 'NONE', #110, 5.000000000000000000 ) ;
#123 = ADVANCED_FACE ( 'NONE', ( #108 ), #60, .F. ) ;
#124 = DIRECTION ( 'NONE',  ( 0.0000000000000000000, 0.0000000000000000000, 1.000000000000000000 ) ) ;
#125 = CARTESIAN_POINT ( 'NONE',  ( 0.0000000000000000000, 0.0000000000000000000, 0.0000000000000000000 ) ) ;
#126 = LOCAL_TIME ( 14, 35, 33.00000000000000000, #70 ) ;
#127 = DATE_AND_TIME ( #97, #166 ) ;
#128 = CC_DESIGN_DATE_AND_TIME_ASSIGNMENT ( #58, #55, ( #98 ) ) ;
#129 = DIRECTION ( 'NONE',  ( 1.000000000000000000, 0.0000000000000000000, 0.0000000000000000000 ) ) ;
#130 = AXIS2_PLACEMENT_3D ( 'NONE', #125, #124, #129 ) ;
#131 = APPLICATION_CONTEXT ( 'configuration controlled 3d designs of mechanical parts and assemblies' ) ;
#132 = DIRECTION ( 'NONE',  ( -0.0000000000000000000, -0.0000000000000000000, -1.000000000000000000 ) ) ;
#133 = DATE_TIME_ROLE ( 'classification_date' ) ;
#134 = MECHANICAL_CONTEXT ( 'NONE', #131, 'mechanical' ) ;
#135 = CYLINDRICAL_SURFACE ( 'NONE', #120, 5.000000000000000000 ) ;
#136 = AXIS2_PLACEMENT_3D ( 'NONE', #155, #90, #101 ) ;
#137 = CC_DESIGN_SECURITY_CLASSIFICATION ( #19, ( #140 ) ) ;
#138 = DATE_AND_TIME ( #167, #86 ) ;
#139 = EDGE_LOOP ( 'NONE', ( #57, #10 ) ) ;
#140 = PRODUCT_DEFINITION_FORMATION_WITH_SPECIFIED_SOURCE ( 'ANY', '', #50, .NOT_KNOWN. ) ;
#141 = DESIGN_CONTEXT ( 'detailed design', #118, 'design' ) ;
#142 = DATE_AND_TIME ( #82, #126 ) ;
#143 = APPROVAL_DATE_TIME ( #138, #162 ) ;
#144 = ORGANIZATION ( 'UNSPECIFIED', 'UNSPECIFIED', '' ) ;
#145 = PERSON ( 'UNSPECIFIED', 'UNSPECIFIED', 'UNSPECIFIED', ('UNSPECIFIED'), ('UNSPECIFIED'), ('UNSPECIFIED') ) ;
#146 = CIRCLE ( 'NONE', #159, 5.000000000000000000 ) ;
#147 = PERSON_AND_ORGANIZATION_ROLE ( 'creator' ) ;
#148 = APPLICATION_PROTOCOL_DEFINITION ( 'international standard', 'config_control_design', 1994, #118 ) ;
#149 = EDGE_CURVE ( 'NONE', #21, #18, #44, .T. ) ;
#150 = CC_DESIGN_APPROVAL ( #162, ( #140 ) ) ;
#151 = CYLINDRICAL_SURFACE ( 'NONE', #2, 5.000000000000000000 ) ;
#152 = PERSON_AND_ORGANIZATION ( #145, #144 ) ;
#153 = LINE ( 'NONE', #157, #89 ) ;
#154 = CIRCLE ( 'NONE', #130, 5.000000000000000000 ) ;
#155 = CARTESIAN_POINT ( 'NONE',  ( 0.0000000000000000000, 0.0000000000000000000, 0.0000000000000000000 ) ) ;
#156 = ORIENTED_EDGE ( 'NONE', *, *, #75, .T. ) ;
#157 = CARTESIAN_POINT ( 'NONE',  ( 5.000000000000000000, 6.123233995736766300E-016, 0.2000000000000000100 ) ) ;
#158 =( NAMED_UNIT ( * ) SI_UNIT ( $, .STERADIAN. ) SOLID_ANGLE_UNIT ( ) );
#159 = AXIS2_PLACEMENT_3D ( 'NONE', #22, #170, #20 ) ;
#160 = PLANE ( 'NONE',  #84 ) ;
#161 = SHAPE_DEFINITION_REPRESENTATION ( #33, #99 ) ;
#162 = APPROVAL ( #171, 'UNSPECIFIED' ) ;
#163 = PERSON_AND_ORGANIZATION_ROLE ( 'creator' ) ;
#164 = ORIENTED_EDGE ( 'NONE', *, *, #149, .T. ) ;
#165 = EDGE_CURVE ( 'NONE', #38, #21, #42, .T. ) ;
#166 = LOCAL_TIME ( 14, 35, 33.00000000000000000, #30 ) ;
#167 = CALENDAR_DATE ( 2017, 31, 1 ) ;
#168 = CARTESIAN_POINT ( 'NONE',  ( 5.000000000000000000, 6.123233995736766300E-016, 0.2000000000000000100 ) ) ;
#169 = LOCAL_TIME ( 14, 35, 33.00000000000000000, #104 ) ;
#170 = DIRECTION ( 'NONE',  ( 0.0000000000000000000, 0.0000000000000000000, 1.000000000000000000 ) ) ;
#171 = APPROVAL_STATUS ( 'not_yet_approved' ) ;
#172 = APPROVAL_ROLE ( '' ) ;
#173 = APPROVAL_ROLE ( '' ) ;
#174 = UNCERTAINTY_MEASURE_WITH_UNIT (LENGTH_MEASURE( 1.000000000000000100E-005 ), #40, 'distance_accuracy_value', 'NONE');
#175 = ADVANCED_FACE ( 'NONE', ( #112 ), #160, .T. ) ;
ENDSEC;
END-ISO-10303-21;
