ISO-10303-21;
HEADER;
FILE_DESCRIPTION (( 'STEP AP203' ),
    '1' );
FILE_NAME ('Web Model 14684_14688.step',
    '2020-04-13T13:38:59',
    ( '' ),
    ( '' ),
    'SwSTEP 2.0',
    'SolidWorks 2018',
    '' );
FILE_SCHEMA (( 'CONFIG_CONTROL_DESIGN' ));
ENDSEC;

DATA;
#1 = APPLICATION_CONTEXT ( 'configuration controlled 3d designs of mechanical parts and assemblies' ) ;
#2 = PERSON_AND_ORGANIZATION ( #68, #3 ) ;
#3 = ORGANIZATION ( 'UNSPECIFIED', 'UNSPECIFIED', '' ) ;
#4 = CC_DESIGN_PERSON_AND_ORGANIZATION_ASSIGNMENT ( #42, #118, ( #53 ) ) ;
#5 = LOCAL_TIME ( 9, 38, 59.00000000000000000, #99 ) ;
#6 = CARTESIAN_POINT ( 'NONE',  ( 1.500000000000000000, 0.0000000000000000000, 10.00000000000000000 ) ) ;
#7 = CARTESIAN_POINT ( 'NONE',  ( 1.500000000000000000, 0.0000000000000000000, 0.0000000000000000000 ) ) ;
#8 = PERSON_AND_ORGANIZATION ( #68, #3 ) ;
#9 = DIRECTION ( 'NONE',  ( 0.0000000000000000000, 0.0000000000000000000, -1.000000000000000000 ) ) ;
#10 = PERSON_AND_ORGANIZATION ( #68, #3 ) ;
#11 = CC_DESIGN_DATE_AND_TIME_ASSIGNMENT ( #119, #89, ( #25 ) ) ;
#12 = AXIS2_PLACEMENT_3D ( 'NONE', #19, #78, #170 ) ;
#13 = DIRECTION ( 'NONE',  ( 0.0000000000000000000, 0.0000000000000000000, -1.000000000000000000 ) ) ;
#14 = APPROVAL_STATUS ( 'not_yet_approved' ) ;
#15 = SHAPE_DEFINITION_REPRESENTATION ( #107, #35 ) ;
#16 = APPROVAL_ROLE ( '' ) ;
#17 = VECTOR ( 'NONE', #149, 1000.000000000000000 ) ;
#18 = ORIENTED_EDGE ( 'NONE', *, *, #43, .T. ) ;
#19 = CARTESIAN_POINT ( 'NONE',  ( 1.500000000000000000, 0.0000000000000000000, 0.0000000000000000000 ) ) ;
#20 = PERSON_AND_ORGANIZATION ( #68, #3 ) ;
#21 = ORIENTED_EDGE ( 'NONE', *, *, #87, .F. ) ;
#22 = DIRECTION ( 'NONE',  ( 0.0000000000000000000, 0.0000000000000000000, 1.000000000000000000 ) ) ;
#23 = DIRECTION ( 'NONE',  ( -1.000000000000000000, -0.0000000000000000000, -0.0000000000000000000 ) ) ;
#24 = PRODUCT ( 'Web Model 14684_14688', 'Web Model 14684_14688', '', ( #101 ) ) ;
#25 = PRODUCT_DEFINITION ( 'UNKNOWN', '', #145, #27 ) ;
#26 = COORDINATED_UNIVERSAL_TIME_OFFSET ( 5, 0, .BEHIND. ) ;
#27 = DESIGN_CONTEXT ( 'detailed design', #55, 'design' ) ;
#28 = CIRCLE ( 'NONE', #94, 10.00000000000000000 ) ;
#29 = APPROVAL_ROLE ( '' ) ;
#30 = DATE_AND_TIME ( #81, #158 ) ;
#31 = LINE ( 'NONE', #163, #135 ) ;
#32 = ADVANCED_FACE ( 'NONE', ( #111 ), #121, .T. ) ;
#33 = CARTESIAN_POINT ( 'NONE',  ( 1.500000000000000000, 1.224646799147353256E-15, -10.00000000000000000 ) ) ;
#34 = DATE_AND_TIME ( #77, #129 ) ;
#35 = ADVANCED_BREP_SHAPE_REPRESENTATION ( 'Web Model 14684_14688', ( #167, #48 ), #174 ) ;
#36 = APPROVAL ( #131, 'UNSPECIFIED' ) ;
#37 = CARTESIAN_POINT ( 'NONE',  ( 1.500000000000000000, 0.0000000000000000000, 0.0000000000000000000 ) ) ;
#38 = CARTESIAN_POINT ( 'NONE',  ( 1.500000000000000000, 1.224646799147353256E-15, -10.00000000000000000 ) ) ;
#39 = EDGE_LOOP ( 'NONE', ( #66, #21, #18, #152 ) ) ;
#40 = PERSON_AND_ORGANIZATION ( #68, #3 ) ;
#41 =( LENGTH_UNIT ( ) NAMED_UNIT ( * ) SI_UNIT ( .MILLI., .METRE. ) );
#42 = PERSON_AND_ORGANIZATION ( #68, #3 ) ;
#43 = EDGE_CURVE ( 'NONE', #106, #173, #31, .T. ) ;
#44 = CC_DESIGN_APPROVAL ( #172, ( #145 ) ) ;
#45 = APPROVAL_DATE_TIME ( #34, #67 ) ;
#46 = DIRECTION ( 'NONE',  ( 0.0000000000000000000, 0.0000000000000000000, -1.000000000000000000 ) ) ;
#47 = PLANE ( 'NONE',  #139 ) ;
#48 = AXIS2_PLACEMENT_3D ( 'NONE', #61, #71, #143 ) ;
#49 = APPROVAL_PERSON_ORGANIZATION ( #54, #172, #29 ) ;
#50 = LINE ( 'NONE', #38, #17 ) ;
#51 = ORIENTED_EDGE ( 'NONE', *, *, #126, .T. ) ;
#52 = APPROVAL_STATUS ( 'not_yet_approved' ) ;
#53 = SECURITY_CLASSIFICATION ( '', '', #142 ) ;
#54 = PERSON_AND_ORGANIZATION ( #68, #3 ) ;
#55 = APPLICATION_CONTEXT ( 'configuration controlled 3d designs of mechanical parts and assemblies' ) ;
#56 = VERTEX_POINT ( 'NONE', #33 ) ;
#57 =( NAMED_UNIT ( * ) PLANE_ANGLE_UNIT ( ) SI_UNIT ( $, .RADIAN. ) );
#58 = EDGE_CURVE ( 'NONE', #56, #123, #50, .T. ) ;
#59 = CC_DESIGN_PERSON_AND_ORGANIZATION_ASSIGNMENT ( #10, #144, ( #24 ) ) ;
#60 = CALENDAR_DATE ( 2020, 13, 4 ) ;
#61 = CARTESIAN_POINT ( 'NONE',  ( 0.0000000000000000000, 0.0000000000000000000, 0.0000000000000000000 ) ) ;
#62 = CC_DESIGN_APPROVAL ( #36, ( #25 ) ) ;
#63 = AXIS2_PLACEMENT_3D ( 'NONE', #37, #153, #96 ) ;
#64 = ORIENTED_EDGE ( 'NONE', *, *, #43, .F. ) ;
#65 = APPROVAL_PERSON_ORGANIZATION ( #2, #36, #169 ) ;
#66 = ORIENTED_EDGE ( 'NONE', *, *, #58, .F. ) ;
#67 = APPROVAL ( #52, 'UNSPECIFIED' ) ;
#68 = PERSON ( 'UNSPECIFIED', 'UNSPECIFIED', 'UNSPECIFIED', ('UNSPECIFIED'), ('UNSPECIFIED'), ('UNSPECIFIED') ) ;
#69 = CALENDAR_DATE ( 2020, 13, 4 ) ;
#70 = LOCAL_TIME ( 9, 38, 59.00000000000000000, #26 ) ;
#71 = DIRECTION ( 'NONE',  ( 0.0000000000000000000, 0.0000000000000000000, 1.000000000000000000 ) ) ;
#72 = EDGE_CURVE ( 'NONE', #173, #123, #84, .T. ) ;
#73 = PERSON_AND_ORGANIZATION_ROLE ( 'design_supplier' ) ;
#74 = CC_DESIGN_PERSON_AND_ORGANIZATION_ASSIGNMENT ( #175, #73, ( #145 ) ) ;
#75 = ORIENTED_EDGE ( 'NONE', *, *, #72, .F. ) ;
#76 = AXIS2_PLACEMENT_3D ( 'NONE', #98, #86, #157 ) ;
#77 = CALENDAR_DATE ( 2020, 13, 4 ) ;
#78 = DIRECTION ( 'NONE',  ( -1.000000000000000000, -0.0000000000000000000, -0.0000000000000000000 ) ) ;
#79 = DATE_AND_TIME ( #69, #70 ) ;
#80 = CC_DESIGN_DATE_AND_TIME_ASSIGNMENT ( #30, #160, ( #53 ) ) ;
#81 = CALENDAR_DATE ( 2020, 13, 4 ) ;
#82 = EDGE_CURVE ( 'NONE', #56, #106, #28, .T. ) ;
#83 = CALENDAR_DATE ( 2020, 13, 4 ) ;
#84 = CIRCLE ( 'NONE', #115, 10.00000000000000000 ) ;
#85 = PRODUCT_RELATED_PRODUCT_CATEGORY ( 'detail', '', ( #24 ) ) ;
#86 = DIRECTION ( 'NONE',  ( 1.000000000000000000, 0.0000000000000000000, 0.0000000000000000000 ) ) ;
#87 = EDGE_CURVE ( 'NONE', #106, #56, #91, .T. ) ;
#88 = ORIENTED_EDGE ( 'NONE', *, *, #82, .T. ) ;
#89 = DATE_TIME_ROLE ( 'creation_date' ) ;
#90 = CIRCLE ( 'NONE', #161, 10.00000000000000000 ) ;
#91 = CIRCLE ( 'NONE', #63, 10.00000000000000000 ) ;
#92 = CC_DESIGN_SECURITY_CLASSIFICATION ( #53, ( #145 ) ) ;
#93 = CARTESIAN_POINT ( 'NONE',  ( -1.500000000000000000, 0.0000000000000000000, 0.0000000000000000000 ) ) ;
#94 = AXIS2_PLACEMENT_3D ( 'NONE', #7, #148, #46 ) ;
#95 = FACE_OUTER_BOUND ( 'NONE', #39, .T. ) ;
#96 = DIRECTION ( 'NONE',  ( 0.0000000000000000000, 0.0000000000000000000, -1.000000000000000000 ) ) ;
#97 = ORIENTED_EDGE ( 'NONE', *, *, #126, .F. ) ;
#98 = CARTESIAN_POINT ( 'NONE',  ( -1.500000000000000000, 0.0000000000000000000, 0.0000000000000000000 ) ) ;
#99 = COORDINATED_UNIVERSAL_TIME_OFFSET ( 5, 0, .BEHIND. ) ;
#100 = EDGE_LOOP ( 'NONE', ( #125, #132, #51, #64 ) ) ;
#101 = MECHANICAL_CONTEXT ( 'NONE', #1, 'mechanical' ) ;
#102 = UNCERTAINTY_MEASURE_WITH_UNIT (LENGTH_MEASURE( 1.000000000000000082E-05 ), #41, 'distance_accuracy_value', 'NONE');
#103 = APPROVAL_DATE_TIME ( #136, #36 ) ;
#104 = APPLICATION_PROTOCOL_DEFINITION ( 'international standard', 'config_control_design', 1994, #55 ) ;
#105 = ADVANCED_FACE ( 'NONE', ( #95 ), #146, .T. ) ;
#106 = VERTEX_POINT ( 'NONE', #6 ) ;
#107 = PRODUCT_DEFINITION_SHAPE ( 'NONE', 'NONE',  #25 ) ;
#108 = CARTESIAN_POINT ( 'NONE',  ( -1.500000000000000000, 1.224646799147353256E-15, -10.00000000000000000 ) ) ;
#109 = DIRECTION ( 'NONE',  ( -1.000000000000000000, -0.0000000000000000000, -0.0000000000000000000 ) ) ;
#110 = COORDINATED_UNIVERSAL_TIME_OFFSET ( 5, 0, .BEHIND. ) ;
#111 = FACE_OUTER_BOUND ( 'NONE', #100, .T. ) ;
#112 = CARTESIAN_POINT ( 'NONE',  ( 1.500000000000000000, 0.0000000000000000000, 0.0000000000000000000 ) ) ;
#113 = CC_DESIGN_PERSON_AND_ORGANIZATION_ASSIGNMENT ( #20, #130, ( #25 ) ) ;
#114 = PLANE ( 'NONE',  #76 ) ;
#115 = AXIS2_PLACEMENT_3D ( 'NONE', #93, #133, #150 ) ;
#116 = APPLICATION_PROTOCOL_DEFINITION ( 'international standard', 'config_control_design', 1994, #1 ) ;
#117 =( NAMED_UNIT ( * ) SI_UNIT ( $, .STERADIAN. ) SOLID_ANGLE_UNIT ( ) );
#118 = PERSON_AND_ORGANIZATION_ROLE ( 'classification_officer' ) ;
#119 = DATE_AND_TIME ( #83, #156 ) ;
#120 = COORDINATED_UNIVERSAL_TIME_OFFSET ( 5, 0, .BEHIND. ) ;
#121 = CYLINDRICAL_SURFACE ( 'NONE', #12, 10.00000000000000000 ) ;
#122 = CC_DESIGN_PERSON_AND_ORGANIZATION_ASSIGNMENT ( #40, #159, ( #145 ) ) ;
#123 = VERTEX_POINT ( 'NONE', #108 ) ;
#124 = FACE_OUTER_BOUND ( 'NONE', #168, .T. ) ;
#125 = ORIENTED_EDGE ( 'NONE', *, *, #82, .F. ) ;
#126 = EDGE_CURVE ( 'NONE', #123, #173, #90, .T. ) ;
#127 = CARTESIAN_POINT ( 'NONE',  ( -1.500000000000000000, 0.0000000000000000000, 10.00000000000000000 ) ) ;
#128 = AXIS2_PLACEMENT_3D ( 'NONE', #134, #109, #22 ) ;
#129 = LOCAL_TIME ( 9, 38, 59.00000000000000000, #166 ) ;
#130 = PERSON_AND_ORGANIZATION_ROLE ( 'creator' ) ;
#131 = APPROVAL_STATUS ( 'not_yet_approved' ) ;
#132 = ORIENTED_EDGE ( 'NONE', *, *, #58, .T. ) ;
#133 = DIRECTION ( 'NONE',  ( 1.000000000000000000, 0.0000000000000000000, 0.0000000000000000000 ) ) ;
#134 = CARTESIAN_POINT ( 'NONE',  ( 1.500000000000000000, 0.0000000000000000000, 0.0000000000000000000 ) ) ;
#135 = VECTOR ( 'NONE', #23, 1000.000000000000000 ) ;
#136 = DATE_AND_TIME ( #60, #5 ) ;
#137 = ORIENTED_EDGE ( 'NONE', *, *, #87, .T. ) ;
#138 = DIRECTION ( 'NONE',  ( 1.000000000000000000, 0.0000000000000000000, 0.0000000000000000000 ) ) ;
#139 = AXIS2_PLACEMENT_3D ( 'NONE', #112, #141, #13 ) ;
#140 = FACE_OUTER_BOUND ( 'NONE', #164, .T. ) ;
#141 = DIRECTION ( 'NONE',  ( 1.000000000000000000, 0.0000000000000000000, 0.0000000000000000000 ) ) ;
#142 = SECURITY_CLASSIFICATION_LEVEL ( 'unclassified' ) ;
#143 = DIRECTION ( 'NONE',  ( 1.000000000000000000, 0.0000000000000000000, 0.0000000000000000000 ) ) ;
#144 = PERSON_AND_ORGANIZATION_ROLE ( 'design_owner' ) ;
#145 = PRODUCT_DEFINITION_FORMATION_WITH_SPECIFIED_SOURCE ( 'ANY', '', #24, .NOT_KNOWN. ) ;
#146 = CYLINDRICAL_SURFACE ( 'NONE', #128, 10.00000000000000000 ) ;
#147 = CC_DESIGN_APPROVAL ( #67, ( #53 ) ) ;
#148 = DIRECTION ( 'NONE',  ( 1.000000000000000000, 0.0000000000000000000, 0.0000000000000000000 ) ) ;
#149 = DIRECTION ( 'NONE',  ( -1.000000000000000000, -0.0000000000000000000, -0.0000000000000000000 ) ) ;
#150 = DIRECTION ( 'NONE',  ( 0.0000000000000000000, 0.0000000000000000000, -1.000000000000000000 ) ) ;
#151 = APPROVAL_DATE_TIME ( #79, #172 ) ;
#152 = ORIENTED_EDGE ( 'NONE', *, *, #72, .T. ) ;
#153 = DIRECTION ( 'NONE',  ( 1.000000000000000000, 0.0000000000000000000, 0.0000000000000000000 ) ) ;
#154 = APPROVAL_PERSON_ORGANIZATION ( #8, #67, #16 ) ;
#155 = CARTESIAN_POINT ( 'NONE',  ( -1.500000000000000000, 0.0000000000000000000, 0.0000000000000000000 ) ) ;
#156 = LOCAL_TIME ( 9, 38, 59.00000000000000000, #120 ) ;
#157 = DIRECTION ( 'NONE',  ( 0.0000000000000000000, 0.0000000000000000000, -1.000000000000000000 ) ) ;
#158 = LOCAL_TIME ( 9, 38, 59.00000000000000000, #110 ) ;
#159 = PERSON_AND_ORGANIZATION_ROLE ( 'creator' ) ;
#160 = DATE_TIME_ROLE ( 'classification_date' ) ;
#161 = AXIS2_PLACEMENT_3D ( 'NONE', #155, #138, #9 ) ;
#162 = ADVANCED_FACE ( 'NONE', ( #140 ), #114, .F. ) ;
#163 = CARTESIAN_POINT ( 'NONE',  ( 1.500000000000000000, 0.0000000000000000000, 10.00000000000000000 ) ) ;
#164 = EDGE_LOOP ( 'NONE', ( #75, #97 ) ) ;
#165 = CLOSED_SHELL ( 'NONE', ( #32, #105, #171, #162 ) ) ;
#166 = COORDINATED_UNIVERSAL_TIME_OFFSET ( 5, 0, .BEHIND. ) ;
#167 = MANIFOLD_SOLID_BREP ( 'Boss-Extrude1', #165 ) ;
#168 = EDGE_LOOP ( 'NONE', ( #137, #88 ) ) ;
#169 = APPROVAL_ROLE ( '' ) ;
#170 = DIRECTION ( 'NONE',  ( 0.0000000000000000000, 0.0000000000000000000, 1.000000000000000000 ) ) ;
#171 = ADVANCED_FACE ( 'NONE', ( #124 ), #47, .T. ) ;
#172 = APPROVAL ( #14, 'UNSPECIFIED' ) ;
#173 = VERTEX_POINT ( 'NONE', #127 ) ;
#174 =( GEOMETRIC_REPRESENTATION_CONTEXT ( 3 ) GLOBAL_UNCERTAINTY_ASSIGNED_CONTEXT ( ( #102 ) ) GLOBAL_UNIT_ASSIGNED_CONTEXT ( ( #41, #57, #117 ) ) REPRESENTATION_CONTEXT ( 'NONE', 'WORKASPACE' ) );
#175 = PERSON_AND_ORGANIZATION ( #68, #3 ) ;
ENDSEC;
END-ISO-10303-21;
