ISO-10303-21;
HEADER;
FILE_DESCRIPTION (( 'STEP AP214' ),
    '1' );
FILE_NAME ('3500-E0W.STEP',
    '2010-12-06T18:29:11',
    ( 'Admin' ),
    ( 'Thorlabs, Inc.' ),
    'SwSTEP 2.0',
    'SolidWorks 2009',
    '' );
FILE_SCHEMA (( 'AUTOMOTIVE_DESIGN' ));
ENDSEC;

DATA;
#1 =( GEOMETRIC_REPRESENTATION_CONTEXT ( 3 ) GLOBAL_UNCERTAINTY_ASSIGNED_CONTEXT ( ( #295 ) ) GLOBAL_UNIT_ASSIGNED_CONTEXT ( ( #290, #297, #296 ) ) REPRESENTATION_CONTEXT ( 'NONE', 'WORKASPACE' ) );
#2 = CARTESIAN_POINT ( 'NONE',  ( 0.0000000000000000000, 6.350000000000001400, -1.999999999999998200 ) ) ;
#3 = DIRECTION ( 'NONE',  ( -0.0000000000000000000, 3.061616997868382600E-016, -1.000000000000000000 ) ) ;
#4 = LINE ( 'NONE', #2, #5 ) ;
#5 = VECTOR ( 'NONE', #3, 1000.000000000000000 ) ;
#6 = ORIENTED_EDGE ( 'NONE', *, *, #104, .T. ) ;
#7 = ORIENTED_EDGE ( 'NONE', *, *, #8, .F. ) ;
#8 = EDGE_CURVE ( 'NONE', #14, #114, #62, .T. ) ;
#9 = ADVANCED_FACE ( 'NONE', ( #63 ), #101, .T. ) ;
#10 = EDGE_LOOP ( 'NONE', ( #11, #12, #116, #117 ) ) ;
#11 = ORIENTED_EDGE ( 'NONE', *, *, #115, .F. ) ;
#12 = ORIENTED_EDGE ( 'NONE', *, *, #8, .T. ) ;
#13 = EDGE_CURVE ( 'NONE', #114, #14, #96, .T. ) ;
#14 = VERTEX_POINT ( 'NONE', #91 ) ;
#15 = ORIENTED_EDGE ( 'NONE', *, *, #21, .F. ) ;
#16 = ORIENTED_EDGE ( 'NONE', *, *, #115, .T. ) ;
#17 = ADVANCED_FACE ( 'NONE', ( #90 ), #135, .T. ) ;
#18 = EDGE_LOOP ( 'NONE', ( #19, #16, #15, #39 ) ) ;
#19 = ORIENTED_EDGE ( 'NONE', *, *, #13, .T. ) ;
#20 = VERTEX_POINT ( 'NONE', #177 ) ;
#21 = EDGE_CURVE ( 'NONE', #44, #20, #275, .T. ) ;
#22 = ORIENTED_EDGE ( 'NONE', *, *, #21, .T. ) ;
#23 = ORIENTED_EDGE ( 'NONE', *, *, #47, .T. ) ;
#24 = ADVANCED_FACE ( 'NONE', ( #263 ), #157, .T. ) ;
#25 = EDGE_LOOP ( 'NONE', ( #26, #30 ) ) ;
#26 = ORIENTED_EDGE ( 'NONE', *, *, #65, .T. ) ;
#27 = ORIENTED_EDGE ( 'NONE', *, *, #45, .T. ) ;
#28 = ORIENTED_EDGE ( 'NONE', *, *, #65, .F. ) ;
#29 = EDGE_LOOP ( 'NONE', ( #64, #28, #27, #32 ) ) ;
#30 = ORIENTED_EDGE ( 'NONE', *, *, #40, .T. ) ;
#31 = CLOSED_SHELL ( 'NONE', ( #43, #17, #112, #125, #68, #119, #9, #24, #33 ) ) ;
#32 = ORIENTED_EDGE ( 'NONE', *, *, #34, .T. ) ;
#33 = ADVANCED_FACE ( 'NONE', ( #231 ), #136, .T. ) ;
#34 = EDGE_CURVE ( 'NONE', #20, #44, #162, .T. ) ;
#35 = ORIENTED_EDGE ( 'NONE', *, *, #108, .F. ) ;
#36 = ORIENTED_EDGE ( 'NONE', *, *, #123, .T. ) ;
#37 = ORIENTED_EDGE ( 'NONE', *, *, #121, .T. ) ;
#38 = VERTEX_POINT ( 'NONE', #181 ) ;
#39 = ORIENTED_EDGE ( 'NONE', *, *, #111, .F. ) ;
#40 = EDGE_CURVE ( 'NONE', #49, #41, #222, .T. ) ;
#41 = VERTEX_POINT ( 'NONE', #217 ) ;
#42 = MANIFOLD_SOLID_BREP ( 'NONE', #31 ) ;
#43 = ADVANCED_FACE ( 'NONE', ( #248 ), #155, .T. ) ;
#44 = VERTEX_POINT ( 'NONE', #154 ) ;
#45 = EDGE_CURVE ( 'NONE', #41, #20, #253, .T. ) ;
#46 = ORIENTED_EDGE ( 'NONE', *, *, #45, .F. ) ;
#47 = EDGE_CURVE ( 'NONE', #49, #44, #199, .T. ) ;
#48 = ORIENTED_EDGE ( 'NONE', *, *, #40, .F. ) ;
#49 = VERTEX_POINT ( 'NONE', #195 ) ;
#50 = STYLED_ITEM ( 'NONE', ( #51 ), #9 ) ;
#51 = PRESENTATION_STYLE_ASSIGNMENT (( #52 ) ) ;
#52 = SURFACE_STYLE_USAGE ( .BOTH. , #53 ) ;
#53 = SURFACE_SIDE_STYLE ('',( #54 ) ) ;
#54 = SURFACE_STYLE_FILL_AREA ( #55 ) ;
#55 = FILL_AREA_STYLE ('',( #56 ) ) ;
#56 = FILL_AREA_STYLE_COLOUR ( '', #57 ) ;
#57 = COLOUR_RGB ( '',0.7529411764705882200, 0.7529411764705882200, 0.7529411764705882200 ) ;
#58 = DIRECTION ( 'NONE',  ( 0.0000000000000000000, 1.000000000000000000, 2.731847993664262700E-016 ) ) ;
#59 = DIRECTION ( 'NONE',  ( -0.0000000000000000000, 3.061616997868382600E-016, -1.000000000000000000 ) ) ;
#60 = CARTESIAN_POINT ( 'NONE',  ( 0.0000000000000000000, 6.069638422808193400E-016, 2.068309272634828700 ) ) ;
#61 = AXIS2_PLACEMENT_3D ( 'NONE', #60, #59, #58 ) ;
#62 = CIRCLE ( 'NONE', #61, 6.350000000000000500 ) ;
#63 = FACE_OUTER_BOUND ( 'NONE', #10, .T. ) ;
#64 = ORIENTED_EDGE ( 'NONE', *, *, #47, .F. ) ;
#65 = EDGE_CURVE ( 'NONE', #41, #49, #151, .T. ) ;
#66 = ORIENTED_EDGE ( 'NONE', *, *, #67, .F. ) ;
#67 = EDGE_CURVE ( 'NONE', #105, #38, #145, .T. ) ;
#68 = ADVANCED_FACE ( 'NONE', ( #193 ), #216, .F. ) ;
#69 = EDGE_LOOP ( 'NONE', ( #70, #71, #118 ) ) ;
#70 = ORIENTED_EDGE ( 'NONE', *, *, #121, .F. ) ;
#71 = ORIENTED_EDGE ( 'NONE', *, *, #110, .F. ) ;
#72 = UNCERTAINTY_MEASURE_WITH_UNIT (LENGTH_MEASURE( 1.000000000000000100E-005 ), #75, 'distance_accuracy_value', 'NONE');
#73 =( NAMED_UNIT ( * ) SI_UNIT ( $, .STERADIAN. ) SOLID_ANGLE_UNIT ( ) );
#74 =( NAMED_UNIT ( * ) PLANE_ANGLE_UNIT ( ) SI_UNIT ( $, .RADIAN. ) );
#75 =( LENGTH_UNIT ( ) NAMED_UNIT ( * ) SI_UNIT ( .MILLI., .METRE. ) );
#76 = MECHANICAL_DESIGN_GEOMETRIC_PRESENTATION_REPRESENTATION (  '', ( #50 ), #102 ) ;
#77 = PRESENTATION_LAYER_ASSIGNMENT (  '', '', ( #50 ) ) ;
#78 = EDGE_LOOP ( 'NONE', ( #48, #23, #22, #46 ) ) ;
#79 =( LENGTH_UNIT ( ) NAMED_UNIT ( * ) SI_UNIT ( .MILLI., .METRE. ) );
#80 = MECHANICAL_DESIGN_GEOMETRIC_PRESENTATION_REPRESENTATION (  '', ( #82 ), #127 ) ;
#81 = PRESENTATION_LAYER_ASSIGNMENT (  '', '', ( #82 ) ) ;
#82 = STYLED_ITEM ( 'NONE', ( #83 ), #17 ) ;
#83 = PRESENTATION_STYLE_ASSIGNMENT (( #84 ) ) ;
#84 = SURFACE_STYLE_USAGE ( .BOTH. , #85 ) ;
#85 = SURFACE_SIDE_STYLE ('',( #86 ) ) ;
#86 = SURFACE_STYLE_FILL_AREA ( #87 ) ;
#87 = FILL_AREA_STYLE ('',( #88 ) ) ;
#88 = FILL_AREA_STYLE_COLOUR ( '', #89 ) ;
#89 = COLOUR_RGB ( '',0.7529411764705882200, 0.7529411764705882200, 0.7529411764705882200 ) ;
#90 = FACE_OUTER_BOUND ( 'NONE', #18, .T. ) ;
#91 = CARTESIAN_POINT ( 'NONE',  ( 7.776250346772096400E-016, -6.349999999999999600, 2.068309272634826900 ) ) ;
#92 = DIRECTION ( 'NONE',  ( 0.0000000000000000000, 1.000000000000000000, 2.731847993664262700E-016 ) ) ;
#93 = DIRECTION ( 'NONE',  ( -0.0000000000000000000, 3.061616997868382600E-016, -1.000000000000000000 ) ) ;
#94 = CARTESIAN_POINT ( 'NONE',  ( 0.0000000000000000000, 6.069638422808193400E-016, 2.068309272634828700 ) ) ;
#95 = AXIS2_PLACEMENT_3D ( 'NONE', #94, #93, #92 ) ;
#96 = CIRCLE ( 'NONE', #95, 6.350000000000000500 ) ;
#97 = DIRECTION ( 'NONE',  ( 0.0000000000000000000, 1.000000000000000000, 2.731847993664263200E-016 ) ) ;
#98 = DIRECTION ( 'NONE',  ( -0.0000000000000000000, 3.061616997868382600E-016, -1.000000000000000000 ) ) ;
#99 = CARTESIAN_POINT ( 'NONE',  ( 0.0000000000000000000, 1.852524324449254000E-015, -2.000000000000000000 ) ) ;
#100 = AXIS2_PLACEMENT_3D ( 'NONE', #99, #98, #97 ) ;
#101 = CYLINDRICAL_SURFACE ( 'NONE', #100, 6.349999999999999600 ) ;
#102 =( GEOMETRIC_REPRESENTATION_CONTEXT ( 3 ) GLOBAL_UNCERTAINTY_ASSIGNED_CONTEXT ( ( #72 ) ) GLOBAL_UNIT_ASSIGNED_CONTEXT ( ( #75, #74, #73 ) ) REPRESENTATION_CONTEXT ( 'NONE', 'WORKASPACE' ) );
#103 = EDGE_LOOP ( 'NONE', ( #122, #37, #66 ) ) ;
#104 = EDGE_CURVE ( 'NONE', #105, #114, #211, .T. ) ;
#105 = VERTEX_POINT ( 'NONE', #207 ) ;
#106 = VERTEX_POINT ( 'NONE', #206 ) ;
#107 = ORIENTED_EDGE ( 'NONE', *, *, #108, .T. ) ;
#108 = EDGE_CURVE ( 'NONE', #106, #14, #287, .T. ) ;
#109 = ORIENTED_EDGE ( 'NONE', *, *, #110, .T. ) ;
#110 = EDGE_CURVE ( 'NONE', #105, #106, #283, .T. ) ;
#111 = EDGE_CURVE ( 'NONE', #114, #44, #4, .T. ) ;
#112 = ADVANCED_FACE ( 'NONE', ( #300 ), #355, .T. ) ;
#113 = EDGE_LOOP ( 'NONE', ( #109, #107, #124, #126 ) ) ;
#114 = VERTEX_POINT ( 'NONE', #356 ) ;
#115 = EDGE_CURVE ( 'NONE', #14, #20, #315, .T. ) ;
#116 = ORIENTED_EDGE ( 'NONE', *, *, #111, .T. ) ;
#117 = ORIENTED_EDGE ( 'NONE', *, *, #34, .F. ) ;
#118 = ORIENTED_EDGE ( 'NONE', *, *, #67, .T. ) ;
#119 = ADVANCED_FACE ( 'NONE', ( #319 ), #312, .T. ) ;
#120 = EDGE_LOOP ( 'NONE', ( #35, #36, #6, #7 ) ) ;
#121 = EDGE_CURVE ( 'NONE', #106, #38, #375, .T. ) ;
#122 = ORIENTED_EDGE ( 'NONE', *, *, #123, .F. ) ;
#123 = EDGE_CURVE ( 'NONE', #106, #105, #369, .T. ) ;
#124 = ORIENTED_EDGE ( 'NONE', *, *, #13, .F. ) ;
#125 = ADVANCED_FACE ( 'NONE', ( #364 ), #388, .F. ) ;
#126 = ORIENTED_EDGE ( 'NONE', *, *, #104, .F. ) ;
#127 =( GEOMETRIC_REPRESENTATION_CONTEXT ( 3 ) GLOBAL_UNCERTAINTY_ASSIGNED_CONTEXT ( ( #128 ) ) GLOBAL_UNIT_ASSIGNED_CONTEXT ( ( #79, #130, #129 ) ) REPRESENTATION_CONTEXT ( 'NONE', 'WORKASPACE' ) );
#128 = UNCERTAINTY_MEASURE_WITH_UNIT (LENGTH_MEASURE( 1.000000000000000100E-005 ), #79, 'distance_accuracy_value', 'NONE');
#129 =( NAMED_UNIT ( * ) SI_UNIT ( $, .STERADIAN. ) SOLID_ANGLE_UNIT ( ) );
#130 =( NAMED_UNIT ( * ) PLANE_ANGLE_UNIT ( ) SI_UNIT ( $, .RADIAN. ) );
#131 = DIRECTION ( 'NONE',  ( 0.0000000000000000000, 1.000000000000000000, 2.731847993664263200E-016 ) ) ;
#132 = DIRECTION ( 'NONE',  ( -0.0000000000000000000, 3.061616997868382600E-016, -1.000000000000000000 ) ) ;
#133 = CARTESIAN_POINT ( 'NONE',  ( 0.0000000000000000000, 1.852524324449254000E-015, -2.000000000000000000 ) ) ;
#134 = AXIS2_PLACEMENT_3D ( 'NONE', #133, #132, #131 ) ;
#135 = CYLINDRICAL_SURFACE ( 'NONE', #134, 6.349999999999999600 ) ;
#136 = PLANE ( 'NONE',  #223 ) ;
#137 = AXIS2_PLACEMENT_3D ( 'NONE', #140, #139, #138 ) ;
#138 = DIRECTION ( 'NONE',  ( 0.0000000000000000000, 1.000000000000000000, 3.073328992872296900E-016 ) ) ;
#139 = DIRECTION ( 'NONE',  ( -0.0000000000000000000, 3.061616997868382600E-016, -1.000000000000000000 ) ) ;
#140 = CARTESIAN_POINT ( 'NONE',  ( 0.0000000000000000000, 1.809226521637479800E-015, -1.858578643762691200 ) ) ;
#141 = COLOUR_RGB ( '',0.7529411764705882200, 0.7529411764705882200, 0.7529411764705882200 ) ;
#142 = DIRECTION ( 'NONE',  ( -1.000000000000000000, 0.0000000000000000000, 0.0000000000000000000 ) ) ;
#143 = CARTESIAN_POINT ( 'NONE',  ( 0.0000000000000000000, 1.056503905003478700E-015, 94.00000000000000000 ) ) ;
#144 = AXIS2_PLACEMENT_3D ( 'NONE', #143, #142, #194 ) ;
#145 = CIRCLE ( 'NONE', #144, 92.00000000000000000 ) ;
#146 = FILL_AREA_STYLE_COLOUR ( '', #192 ) ;
#147 = DIRECTION ( 'NONE',  ( 0.0000000000000000000, 1.000000000000000000, 2.794075062123209900E-016 ) ) ;
#148 = DIRECTION ( 'NONE',  ( -0.0000000000000000000, 3.061616997868382600E-016, -1.000000000000000000 ) ) ;
#149 = CARTESIAN_POINT ( 'NONE',  ( 0.0000000000000000000, 1.852524324449254000E-015, -2.000000000000000400 ) ) ;
#150 = AXIS2_PLACEMENT_3D ( 'NONE', #149, #148, #147 ) ;
#151 = CIRCLE ( 'NONE', #150, 6.208578643762689500 ) ;
#152 = CARTESIAN_POINT ( 'NONE',  ( 0.0000000000000000000, 1.852524324449254000E-015, -2.000000000000000400 ) ) ;
#153 = AXIS2_PLACEMENT_3D ( 'NONE', #152, #255, #254 ) ;
#154 = CARTESIAN_POINT ( 'NONE',  ( 0.0000000000000000000, 6.350000000000000500, -1.858578643762689200 ) ) ;
#155 = CONICAL_SURFACE ( 'NONE', #153, 6.208578643762689500, 0.7853981633974498300 ) ;
#156 = AXIS2_PLACEMENT_3D ( 'NONE', #169, #276, #168 ) ;
#157 = CONICAL_SURFACE ( 'NONE', #159, 6.208578643762689500, 0.7853981633974498300 ) ;
#158 = CARTESIAN_POINT ( 'NONE',  ( 0.0000000000000000000, 1.852524324449254000E-015, -2.000000000000000400 ) ) ;
#159 = AXIS2_PLACEMENT_3D ( 'NONE', #158, #233, #232 ) ;
#160 = MECHANICAL_DESIGN_GEOMETRIC_PRESENTATION_REPRESENTATION (  '', ( #235 ), #264 ) ;
#161 = PRESENTATION_LAYER_ASSIGNMENT (  '', '', ( #235 ) ) ;
#162 = CIRCLE ( 'NONE', #137, 6.349999999999998800 ) ;
#163 = DIRECTION ( 'NONE',  ( 0.0000000000000000000, 1.000000000000000000, 3.061616997868382600E-016 ) ) ;
#164 = DIRECTION ( 'NONE',  ( -0.0000000000000000000, 3.061616997868382600E-016, -1.000000000000000000 ) ) ;
#165 = CARTESIAN_POINT ( 'NONE',  ( 0.0000000000000000000, 1.852524324449254000E-015, -2.000000000000000000 ) ) ;
#166 = UNCERTAINTY_MEASURE_WITH_UNIT (LENGTH_MEASURE( 1.000000000000000100E-005 ), #265, 'distance_accuracy_value', 'NONE');
#167 =( NAMED_UNIT ( * ) SI_UNIT ( $, .STERADIAN. ) SOLID_ANGLE_UNIT ( ) );
#168 = DIRECTION ( 'NONE',  ( 0.0000000000000000000, 1.000000000000000000, 3.073328992872296900E-016 ) ) ;
#169 = CARTESIAN_POINT ( 'NONE',  ( 0.0000000000000000000, 1.809226521637479800E-015, -1.858578643762691200 ) ) ;
#170 =( GEOMETRIC_REPRESENTATION_CONTEXT ( 3 ) GLOBAL_UNCERTAINTY_ASSIGNED_CONTEXT ( ( #171 ) ) GLOBAL_UNIT_ASSIGNED_CONTEXT ( ( #200, #260, #259 ) ) REPRESENTATION_CONTEXT ( 'NONE', 'WORKASPACE' ) );
#171 = UNCERTAINTY_MEASURE_WITH_UNIT (LENGTH_MEASURE( 1.000000000000000100E-005 ), #200, 'distance_accuracy_value', 'NONE');
#172 =( GEOMETRIC_REPRESENTATION_CONTEXT ( 3 ) GLOBAL_UNCERTAINTY_ASSIGNED_CONTEXT ( ( #173 ) ) GLOBAL_UNIT_ASSIGNED_CONTEXT ( ( #183, #175, #174 ) ) REPRESENTATION_CONTEXT ( 'NONE', 'WORKASPACE' ) );
#173 = UNCERTAINTY_MEASURE_WITH_UNIT (LENGTH_MEASURE( 1.000000000000000100E-005 ), #183, 'distance_accuracy_value', 'NONE');
#174 =( NAMED_UNIT ( * ) SI_UNIT ( $, .STERADIAN. ) SOLID_ANGLE_UNIT ( ) );
#175 =( NAMED_UNIT ( * ) PLANE_ANGLE_UNIT ( ) SI_UNIT ( $, .RADIAN. ) );
#176 = UNCERTAINTY_MEASURE_WITH_UNIT (LENGTH_MEASURE( 1.000000000000000100E-005 ), #229, 'distance_accuracy_value', 'NONE');
#177 = CARTESIAN_POINT ( 'NONE',  ( 7.776250346772094400E-016, -6.349999999999997000, -1.858578643762693200 ) ) ;
#178 = SURFACE_STYLE_USAGE ( .BOTH. , #179 ) ;
#179 = SURFACE_SIDE_STYLE ('',( #261 ) ) ;
#180 =( NAMED_UNIT ( * ) PLANE_ANGLE_UNIT ( ) SI_UNIT ( $, .RADIAN. ) );
#181 = CARTESIAN_POINT ( 'NONE',  ( 0.0000000000000000000, 3.485656951297553600E-014, 2.000000000000001800 ) ) ;
#182 = FILL_AREA_STYLE_COLOUR ( '', #141 ) ;
#183 =( LENGTH_UNIT ( ) NAMED_UNIT ( * ) SI_UNIT ( .MILLI., .METRE. ) );
#184 = MECHANICAL_DESIGN_GEOMETRIC_PRESENTATION_REPRESENTATION (  '', ( #186 ), #172 ) ;
#185 = PRESENTATION_LAYER_ASSIGNMENT (  '', '', ( #186 ) ) ;
#186 = STYLED_ITEM ( 'NONE', ( #187 ), #68 ) ;
#187 = PRESENTATION_STYLE_ASSIGNMENT (( #188 ) ) ;
#188 = SURFACE_STYLE_USAGE ( .BOTH. , #189 ) ;
#189 = SURFACE_SIDE_STYLE ('',( #190 ) ) ;
#190 = SURFACE_STYLE_FILL_AREA ( #191 ) ;
#191 = FILL_AREA_STYLE ('',( #146 ) ) ;
#192 = COLOUR_RGB ( '',0.7529411764705882200, 0.7529411764705882200, 0.7529411764705882200 ) ;
#193 = FACE_OUTER_BOUND ( 'NONE', #69, .T. ) ;
#194 = DIRECTION ( 'NONE',  ( 0.0000000000000000000, 0.0000000000000000000, 1.000000000000000000 ) ) ;
#195 = CARTESIAN_POINT ( 'NONE',  ( 7.689657601064900300E-016, 6.208578643762691300, -1.999999999999998700 ) ) ;
#196 = DIRECTION ( 'NONE',  ( 8.659274570719367700E-017, 0.7071067811865483500, 0.7071067811865466800 ) ) ;
#197 = VECTOR ( 'NONE', #196, 1000.000000000000000 ) ;
#198 = CARTESIAN_POINT ( 'NONE',  ( 7.603064855357707200E-016, 6.208578643762691300, -1.999999999999998700 ) ) ;
#199 = LINE ( 'NONE', #198, #197 ) ;
#200 =( LENGTH_UNIT ( ) NAMED_UNIT ( * ) SI_UNIT ( .MILLI., .METRE. ) );
#201 = MECHANICAL_DESIGN_GEOMETRIC_PRESENTATION_REPRESENTATION (  '', ( #203 ), #170 ) ;
#202 = PRESENTATION_LAYER_ASSIGNMENT (  '', '', ( #203 ) ) ;
#203 = STYLED_ITEM ( 'NONE', ( #204 ), #43 ) ;
#204 = PRESENTATION_STYLE_ASSIGNMENT (( #205 ) ) ;
#205 = SURFACE_STYLE_USAGE ( .BOTH. , #243 ) ;
#206 = CARTESIAN_POINT ( 'NONE',  ( 7.603064855357720100E-016, -6.208578643762670900, 2.209730628872140600 ) ) ;
#207 = CARTESIAN_POINT ( 'NONE',  ( 0.0000000000000000000, 6.208578643762700200, 2.209730628872142300 ) ) ;
#208 = DIRECTION ( 'NONE',  ( 0.0000000000000000000, 0.7071067811865412400, -0.7071067811865536800 ) ) ;
#209 = VECTOR ( 'NONE', #208, 1000.000000000000100 ) ;
#210 = CARTESIAN_POINT ( 'NONE',  ( 0.0000000000000000000, 6.350000000000001400, 2.068309272634830400 ) ) ;
#211 = LINE ( 'NONE', #210, #209 ) ;
#212 = DIRECTION ( 'NONE',  ( 0.0000000000000000000, 1.000000000000000000, 3.016910393003142900E-016 ) ) ;
#213 = DIRECTION ( 'NONE',  ( 1.000000000000000000, 0.0000000000000000000, -0.0000000000000000000 ) ) ;
#214 = CARTESIAN_POINT ( 'NONE',  ( 0.0000000000000000000, 1.056503905003478700E-015, 94.00000000000000000 ) ) ;
#215 = AXIS2_PLACEMENT_3D ( 'NONE', #214, #213, #212 ) ;
#216 = SPHERICAL_SURFACE ( 'NONE', #215, 92.00000000000000000 ) ;
#217 = CARTESIAN_POINT ( 'NONE',  ( 0.0000000000000000000, -6.208578643762687800, -2.000000000000002200 ) ) ;
#218 = DIRECTION ( 'NONE',  ( 0.0000000000000000000, 1.000000000000000000, 2.794075062123209900E-016 ) ) ;
#219 = DIRECTION ( 'NONE',  ( -0.0000000000000000000, 3.061616997868382600E-016, -1.000000000000000000 ) ) ;
#220 = CARTESIAN_POINT ( 'NONE',  ( 0.0000000000000000000, 1.852524324449254000E-015, -2.000000000000000400 ) ) ;
#221 = AXIS2_PLACEMENT_3D ( 'NONE', #220, #219, #218 ) ;
#222 = CIRCLE ( 'NONE', #221, 6.208578643762689500 ) ;
#223 = AXIS2_PLACEMENT_3D ( 'NONE', #165, #164, #163 ) ;
#224 =( GEOMETRIC_REPRESENTATION_CONTEXT ( 3 ) GLOBAL_UNCERTAINTY_ASSIGNED_CONTEXT ( ( #166 ) ) GLOBAL_UNIT_ASSIGNED_CONTEXT ( ( #265, #180, #167 ) ) REPRESENTATION_CONTEXT ( 'NONE', 'WORKASPACE' ) );
#225 =( NAMED_UNIT ( * ) SI_UNIT ( $, .STERADIAN. ) SOLID_ANGLE_UNIT ( ) );
#226 =( LENGTH_UNIT ( ) NAMED_UNIT ( * ) SI_UNIT ( .MILLI., .METRE. ) );
#227 = MECHANICAL_DESIGN_GEOMETRIC_PRESENTATION_REPRESENTATION (  '', ( #267 ), #249 ) ;
#228 =( NAMED_UNIT ( * ) PLANE_ANGLE_UNIT ( ) SI_UNIT ( $, .RADIAN. ) );
#229 =( LENGTH_UNIT ( ) NAMED_UNIT ( * ) SI_UNIT ( .MILLI., .METRE. ) );
#230 = COLOUR_RGB ( '',0.7529411764705882200, 0.7529411764705882200, 0.7529411764705882200 ) ;
#231 = FACE_OUTER_BOUND ( 'NONE', #25, .T. ) ;
#232 = DIRECTION ( 'NONE',  ( 0.0000000000000000000, -1.000000000000000000, -2.794075062123209900E-016 ) ) ;
#233 = DIRECTION ( 'NONE',  ( 0.0000000000000000000, -3.061616997868382600E-016, 1.000000000000000000 ) ) ;
#234 = UNCERTAINTY_MEASURE_WITH_UNIT (LENGTH_MEASURE( 1.000000000000000100E-005 ), #226, 'distance_accuracy_value', 'NONE');
#235 = STYLED_ITEM ( 'NONE', ( #236 ), #24 ) ;
#236 = PRESENTATION_STYLE_ASSIGNMENT (( #178 ) ) ;
#237 = MECHANICAL_DESIGN_GEOMETRIC_PRESENTATION_REPRESENTATION (  '', ( #239 ), #224 ) ;
#238 = PRESENTATION_LAYER_ASSIGNMENT (  '', '', ( #239 ) ) ;
#239 = STYLED_ITEM ( 'NONE', ( #240 ), #33 ) ;
#240 = PRESENTATION_STYLE_ASSIGNMENT (( #241 ) ) ;
#241 = SURFACE_STYLE_USAGE ( .BOTH. , #242 ) ;
#242 = SURFACE_SIDE_STYLE ('',( #256 ) ) ;
#243 = SURFACE_SIDE_STYLE ('',( #244 ) ) ;
#244 = SURFACE_STYLE_FILL_AREA ( #245 ) ;
#245 = FILL_AREA_STYLE ('',( #246 ) ) ;
#246 = FILL_AREA_STYLE_COLOUR ( '', #247 ) ;
#247 = COLOUR_RGB ( '',0.7529411764705882200, 0.7529411764705882200, 0.7529411764705882200 ) ;
#248 = FACE_OUTER_BOUND ( 'NONE', #78, .T. ) ;
#249 =( GEOMETRIC_REPRESENTATION_CONTEXT ( 3 ) GLOBAL_UNCERTAINTY_ASSIGNED_CONTEXT ( ( #234 ) ) GLOBAL_UNIT_ASSIGNED_CONTEXT ( ( #226, #278, #277 ) ) REPRESENTATION_CONTEXT ( 'NONE', 'WORKASPACE' ) );
#250 = DIRECTION ( 'NONE',  ( 0.0000000000000000000, -0.7071067811865489100, 0.7071067811865462400 ) ) ;
#251 = VECTOR ( 'NONE', #250, 999.9999999999998900 ) ;
#252 = CARTESIAN_POINT ( 'NONE',  ( 0.0000000000000000000, -6.208578643762687800, -2.000000000000002200 ) ) ;
#253 = LINE ( 'NONE', #252, #251 ) ;
#254 = DIRECTION ( 'NONE',  ( 0.0000000000000000000, -1.000000000000000000, -2.794075062123209900E-016 ) ) ;
#255 = DIRECTION ( 'NONE',  ( 0.0000000000000000000, -3.061616997868382600E-016, 1.000000000000000000 ) ) ;
#256 = SURFACE_STYLE_FILL_AREA ( #257 ) ;
#257 = FILL_AREA_STYLE ('',( #258 ) ) ;
#258 = FILL_AREA_STYLE_COLOUR ( '', #230 ) ;
#259 =( NAMED_UNIT ( * ) SI_UNIT ( $, .STERADIAN. ) SOLID_ANGLE_UNIT ( ) );
#260 =( NAMED_UNIT ( * ) PLANE_ANGLE_UNIT ( ) SI_UNIT ( $, .RADIAN. ) );
#261 = SURFACE_STYLE_FILL_AREA ( #262 ) ;
#262 = FILL_AREA_STYLE ('',( #182 ) ) ;
#263 = FACE_OUTER_BOUND ( 'NONE', #29, .T. ) ;
#264 =( GEOMETRIC_REPRESENTATION_CONTEXT ( 3 ) GLOBAL_UNCERTAINTY_ASSIGNED_CONTEXT ( ( #176 ) ) GLOBAL_UNIT_ASSIGNED_CONTEXT ( ( #229, #228, #225 ) ) REPRESENTATION_CONTEXT ( 'NONE', 'WORKASPACE' ) );
#265 =( LENGTH_UNIT ( ) NAMED_UNIT ( * ) SI_UNIT ( .MILLI., .METRE. ) );
#266 = PRESENTATION_LAYER_ASSIGNMENT (  '', '', ( #267 ) ) ;
#267 = STYLED_ITEM ( 'NONE', ( #268 ), #42 ) ;
#268 = PRESENTATION_STYLE_ASSIGNMENT (( #269 ) ) ;
#269 = SURFACE_STYLE_USAGE ( .BOTH. , #270 ) ;
#270 = SURFACE_SIDE_STYLE ('',( #271 ) ) ;
#271 = SURFACE_STYLE_FILL_AREA ( #272 ) ;
#272 = FILL_AREA_STYLE ('',( #273 ) ) ;
#273 = FILL_AREA_STYLE_COLOUR ( '', #274 ) ;
#274 = COLOUR_RGB ( '',0.7960784313725489700, 0.8235294117647058400, 0.9372549019607843100 ) ;
#275 = CIRCLE ( 'NONE', #156, 6.349999999999998800 ) ;
#276 = DIRECTION ( 'NONE',  ( -0.0000000000000000000, 3.061616997868382600E-016, -1.000000000000000000 ) ) ;
#277 =( NAMED_UNIT ( * ) SI_UNIT ( $, .STERADIAN. ) SOLID_ANGLE_UNIT ( ) );
#278 =( NAMED_UNIT ( * ) PLANE_ANGLE_UNIT ( ) SI_UNIT ( $, .RADIAN. ) );
#279 = DIRECTION ( 'NONE',  ( 0.0000000000000000000, 1.000000000000000000, 2.794075062123208900E-016 ) ) ;
#280 = DIRECTION ( 'NONE',  ( -0.0000000000000000000, 3.061616997868382600E-016, -1.000000000000000000 ) ) ;
#281 = CARTESIAN_POINT ( 'NONE',  ( 0.0000000000000000000, 5.636660394690437300E-016, 2.209730628872141000 ) ) ;
#282 = AXIS2_PLACEMENT_3D ( 'NONE', #281, #280, #279 ) ;
#283 = CIRCLE ( 'NONE', #282, 6.208578643762691300 ) ;
#284 = DIRECTION ( 'NONE',  ( 8.659274570719274100E-017, -0.7071067811865408000, -0.7071067811865541200 ) ) ;
#285 = VECTOR ( 'NONE', #284, 1000.000000000000100 ) ;
#286 = CARTESIAN_POINT ( 'NONE',  ( 7.776250346772096400E-016, -6.349999999999999600, 2.068309272634826900 ) ) ;
#287 = LINE ( 'NONE', #286, #285 ) ;
#288 = STYLED_ITEM ( 'NONE', ( #289 ), #112 ) ;
#289 = PRESENTATION_STYLE_ASSIGNMENT (( #301 ) ) ;
#290 =( LENGTH_UNIT ( ) NAMED_UNIT ( * ) SI_UNIT ( .MILLI., .METRE. ) );
#291 = MECHANICAL_DESIGN_GEOMETRIC_PRESENTATION_REPRESENTATION (  '', ( #288 ), #1 ) ;
#292 = PRESENTATION_LAYER_ASSIGNMENT (  '', '', ( #288 ) ) ;
#293 = FILL_AREA_STYLE ('',( #294 ) ) ;
#294 = FILL_AREA_STYLE_COLOUR ( '', #299 ) ;
#295 = UNCERTAINTY_MEASURE_WITH_UNIT (LENGTH_MEASURE( 1.000000000000000100E-005 ), #290, 'distance_accuracy_value', 'NONE');
#296 =( NAMED_UNIT ( * ) SI_UNIT ( $, .STERADIAN. ) SOLID_ANGLE_UNIT ( ) );
#297 =( NAMED_UNIT ( * ) PLANE_ANGLE_UNIT ( ) SI_UNIT ( $, .RADIAN. ) );
#298 = SURFACE_STYLE_FILL_AREA ( #293 ) ;
#299 = COLOUR_RGB ( '',0.7529411764705882200, 0.7529411764705882200, 0.7529411764705882200 ) ;
#300 = FACE_OUTER_BOUND ( 'NONE', #113, .T. ) ;
#301 = SURFACE_STYLE_USAGE ( .BOTH. , #302 ) ;
#302 = SURFACE_SIDE_STYLE ('',( #298 ) ) ;
#303 = PRESENTATION_LAYER_ASSIGNMENT (  '', '', ( #304 ) ) ;
#304 = STYLED_ITEM ( 'NONE', ( #305 ), #119 ) ;
#305 = PRESENTATION_STYLE_ASSIGNMENT (( #306 ) ) ;
#306 = SURFACE_STYLE_USAGE ( .BOTH. , #307 ) ;
#307 = SURFACE_SIDE_STYLE ('',( #308 ) ) ;
#308 = SURFACE_STYLE_FILL_AREA ( #317 ) ;
#309 = DIRECTION ( 'NONE',  ( -0.0000000000000000000, 3.061616997868382600E-016, -1.000000000000000000 ) ) ;
#310 = CARTESIAN_POINT ( 'NONE',  ( 0.0000000000000000000, 6.069638422808193400E-016, 2.068309272634828700 ) ) ;
#311 = AXIS2_PLACEMENT_3D ( 'NONE', #310, #309, #376 ) ;
#312 = CONICAL_SURFACE ( 'NONE', #311, 6.350000000000000500, 0.7853981633974391800 ) ;
#313 = APPLICATION_PROTOCOL_DEFINITION ( 'draft international standard', 'automotive_design', 1998, #357 ) ;
#314 =( GEOMETRIC_REPRESENTATION_CONTEXT ( 3 ) GLOBAL_UNCERTAINTY_ASSIGNED_CONTEXT ( ( #377 ) ) GLOBAL_UNIT_ASSIGNED_CONTEXT ( ( #341, #379, #378 ) ) REPRESENTATION_CONTEXT ( 'NONE', 'WORKASPACE' ) );
#315 = LINE ( 'NONE', #322, #321 ) ;
#316 = FILL_AREA_STYLE_COLOUR ( '', #318 ) ;
#317 = FILL_AREA_STYLE ('',( #316 ) ) ;
#318 = COLOUR_RGB ( '',0.7529411764705882200, 0.7529411764705882200, 0.7529411764705882200 ) ;
#319 = FACE_OUTER_BOUND ( 'NONE', #120, .T. ) ;
#320 = DIRECTION ( 'NONE',  ( -0.0000000000000000000, 3.061616997868382600E-016, -1.000000000000000000 ) ) ;
#321 = VECTOR ( 'NONE', #320, 1000.000000000000000 ) ;
#322 = CARTESIAN_POINT ( 'NONE',  ( 7.776250346772095400E-016, -6.349999999999997900, -2.000000000000001800 ) ) ;
#323 = PRODUCT_DEFINITION_SHAPE ( 'NONE', 'NONE',  #326 ) ;
#324 = PRODUCT_RELATED_PRODUCT_CATEGORY ( 'part', '', ( #330 ) ) ;
#325 = PRODUCT_DEFINITION_FORMATION_WITH_SPECIFIED_SOURCE ( 'ANY', '', #330, .NOT_KNOWN. ) ;
#326 = PRODUCT_DEFINITION ( 'UNKNOWN', '', #325, #327 ) ;
#327 = PRODUCT_DEFINITION_CONTEXT ( 'detailed design', #329, 'design' ) ;
#328 = APPLICATION_PROTOCOL_DEFINITION ( 'draft international standard', 'automotive_design', 1998, #329 ) ;
#329 = APPLICATION_CONTEXT ( 'automotive_design' ) ;
#330 = PRODUCT ( '3500-E0W', '3500-E0W', '', ( #331 ) ) ;
#331 = PRODUCT_CONTEXT ( 'NONE', #357, 'mechanical' ) ;
#332 = DIRECTION ( 'NONE',  ( 0.0000000000000000000, 1.000000000000000000, 2.731847993664262700E-016 ) ) ;
#333 = SHAPE_DEFINITION_REPRESENTATION ( #323, #358 ) ;
#334 = DIRECTION ( 'NONE',  ( 1.000000000000000000, 0.0000000000000000000, 0.0000000000000000000 ) ) ;
#335 = DIRECTION ( 'NONE',  ( 0.0000000000000000000, 0.0000000000000000000, 1.000000000000000000 ) ) ;
#336 = AXIS2_PLACEMENT_3D ( 'NONE', #387, #335, #334 ) ;
#337 =( GEOMETRIC_REPRESENTATION_CONTEXT ( 3 ) GLOBAL_UNCERTAINTY_ASSIGNED_CONTEXT ( ( #338 ) ) GLOBAL_UNIT_ASSIGNED_CONTEXT ( ( #343, #340, #339 ) ) REPRESENTATION_CONTEXT ( 'NONE', 'WORKASPACE' ) );
#338 = UNCERTAINTY_MEASURE_WITH_UNIT (LENGTH_MEASURE( 1.000000000000000100E-005 ), #343, 'distance_accuracy_value', 'NONE');
#339 =( NAMED_UNIT ( * ) SI_UNIT ( $, .STERADIAN. ) SOLID_ANGLE_UNIT ( ) );
#340 =( NAMED_UNIT ( * ) PLANE_ANGLE_UNIT ( ) SI_UNIT ( $, .RADIAN. ) );
#341 =( LENGTH_UNIT ( ) NAMED_UNIT ( * ) SI_UNIT ( .MILLI., .METRE. ) );
#342 = MECHANICAL_DESIGN_GEOMETRIC_PRESENTATION_REPRESENTATION (  '', ( #304 ), #314 ) ;
#343 =( LENGTH_UNIT ( ) NAMED_UNIT ( * ) SI_UNIT ( .MILLI., .METRE. ) );
#344 = MECHANICAL_DESIGN_GEOMETRIC_PRESENTATION_REPRESENTATION (  '', ( #346 ), #337 ) ;
#345 = PRESENTATION_LAYER_ASSIGNMENT (  '', '', ( #346 ) ) ;
#346 = STYLED_ITEM ( 'NONE', ( #347 ), #358 ) ;
#347 = PRESENTATION_STYLE_ASSIGNMENT (( #348 ) ) ;
#348 = SURFACE_STYLE_USAGE ( .BOTH. , #349 ) ;
#349 = SURFACE_SIDE_STYLE ('',( #350 ) ) ;
#350 = SURFACE_STYLE_FILL_AREA ( #351 ) ;
#351 = FILL_AREA_STYLE ('',( #352 ) ) ;
#352 = FILL_AREA_STYLE_COLOUR ( '', #353 ) ;
#353 = COLOUR_RGB ( '',0.7960784313725489700, 0.8235294117647058400, 0.9372549019607843100 ) ;
#354 = AXIS2_PLACEMENT_3D ( 'NONE', #361, #362, #332 ) ;
#355 = CONICAL_SURFACE ( 'NONE', #354, 6.350000000000000500, 0.7853981633974391800 ) ;
#356 = CARTESIAN_POINT ( 'NONE',  ( 0.0000000000000000000, 6.350000000000001400, 2.068309272634830400 ) ) ;
#357 = APPLICATION_CONTEXT ( 'automotive_design' ) ;
#358 = ADVANCED_BREP_SHAPE_REPRESENTATION ( '3500-E0W', ( #42, #336 ), #359 ) ;
#359 =( GEOMETRIC_REPRESENTATION_CONTEXT ( 3 ) GLOBAL_UNCERTAINTY_ASSIGNED_CONTEXT ( ( #360 ) ) GLOBAL_UNIT_ASSIGNED_CONTEXT ( ( #382, #381, #380 ) ) REPRESENTATION_CONTEXT ( 'NONE', 'WORKASPACE' ) );
#360 = UNCERTAINTY_MEASURE_WITH_UNIT (LENGTH_MEASURE( 1.000000000000000100E-005 ), #382, 'distance_accuracy_value', 'NONE');
#361 = CARTESIAN_POINT ( 'NONE',  ( 0.0000000000000000000, 6.069638422808193400E-016, 2.068309272634828700 ) ) ;
#362 = DIRECTION ( 'NONE',  ( -0.0000000000000000000, 3.061616997868382600E-016, -1.000000000000000000 ) ) ;
#363 = COLOUR_RGB ( '',0.7529411764705882200, 0.7529411764705882200, 0.7529411764705882200 ) ;
#364 = FACE_OUTER_BOUND ( 'NONE', #103, .T. ) ;
#365 = DIRECTION ( 'NONE',  ( 0.0000000000000000000, 1.000000000000000000, 2.794075062123208900E-016 ) ) ;
#366 = DIRECTION ( 'NONE',  ( -0.0000000000000000000, 3.061616997868382600E-016, -1.000000000000000000 ) ) ;
#367 = CARTESIAN_POINT ( 'NONE',  ( 0.0000000000000000000, 5.636660394690437300E-016, 2.209730628872141000 ) ) ;
#368 = AXIS2_PLACEMENT_3D ( 'NONE', #367, #366, #365 ) ;
#369 = CIRCLE ( 'NONE', #368, 6.208578643762691300 ) ;
#370 = FILL_AREA_STYLE_COLOUR ( '', #363 ) ;
#371 = DIRECTION ( 'NONE',  ( -1.224606353822377300E-016, 1.000000000000000000, 0.0000000000000000000 ) ) ;
#372 = DIRECTION ( 'NONE',  ( 1.000000000000000000, 1.224606353822377300E-016, 3.749275628560213100E-032 ) ) ;
#373 = CARTESIAN_POINT ( 'NONE',  ( 0.0000000000000000000, 1.056503905003478700E-015, 94.00000000000000000 ) ) ;
#374 = AXIS2_PLACEMENT_3D ( 'NONE', #373, #372, #371 ) ;
#375 = CIRCLE ( 'NONE', #374, 92.00000000000000000 ) ;
#376 = DIRECTION ( 'NONE',  ( 0.0000000000000000000, 1.000000000000000000, 2.731847993664262700E-016 ) ) ;
#377 = UNCERTAINTY_MEASURE_WITH_UNIT (LENGTH_MEASURE( 1.000000000000000100E-005 ), #341, 'distance_accuracy_value', 'NONE');
#378 =( NAMED_UNIT ( * ) SI_UNIT ( $, .STERADIAN. ) SOLID_ANGLE_UNIT ( ) );
#379 =( NAMED_UNIT ( * ) PLANE_ANGLE_UNIT ( ) SI_UNIT ( $, .RADIAN. ) );
#380 =( NAMED_UNIT ( * ) SI_UNIT ( $, .STERADIAN. ) SOLID_ANGLE_UNIT ( ) );
#381 =( NAMED_UNIT ( * ) PLANE_ANGLE_UNIT ( ) SI_UNIT ( $, .RADIAN. ) );
#382 =( LENGTH_UNIT ( ) NAMED_UNIT ( * ) SI_UNIT ( .MILLI., .METRE. ) );
#383 = DIRECTION ( 'NONE',  ( 0.0000000000000000000, 1.000000000000000000, 3.016910393003142900E-016 ) ) ;
#384 = DIRECTION ( 'NONE',  ( 1.000000000000000000, 0.0000000000000000000, -0.0000000000000000000 ) ) ;
#385 = CARTESIAN_POINT ( 'NONE',  ( 0.0000000000000000000, 1.056503905003478700E-015, 94.00000000000000000 ) ) ;
#386 = AXIS2_PLACEMENT_3D ( 'NONE', #385, #384, #383 ) ;
#387 = CARTESIAN_POINT ( 'NONE',  ( 0.0000000000000000000, 0.0000000000000000000, 0.0000000000000000000 ) ) ;
#388 = SPHERICAL_SURFACE ( 'NONE', #386, 92.00000000000000000 ) ;
#389 =( GEOMETRIC_REPRESENTATION_CONTEXT ( 3 ) GLOBAL_UNCERTAINTY_ASSIGNED_CONTEXT ( ( #390 ) ) GLOBAL_UNIT_ASSIGNED_CONTEXT ( ( #393, #392, #391 ) ) REPRESENTATION_CONTEXT ( 'NONE', 'WORKASPACE' ) );
#390 = UNCERTAINTY_MEASURE_WITH_UNIT (LENGTH_MEASURE( 1.000000000000000100E-005 ), #393, 'distance_accuracy_value', 'NONE');
#391 =( NAMED_UNIT ( * ) SI_UNIT ( $, .STERADIAN. ) SOLID_ANGLE_UNIT ( ) );
#392 =( NAMED_UNIT ( * ) PLANE_ANGLE_UNIT ( ) SI_UNIT ( $, .RADIAN. ) );
#393 =( LENGTH_UNIT ( ) NAMED_UNIT ( * ) SI_UNIT ( .MILLI., .METRE. ) );
#394 = MECHANICAL_DESIGN_GEOMETRIC_PRESENTATION_REPRESENTATION (  '', ( #396 ), #389 ) ;
#395 = PRESENTATION_LAYER_ASSIGNMENT (  '', '', ( #396 ) ) ;
#396 = STYLED_ITEM ( 'NONE', ( #397 ), #125 ) ;
#397 = PRESENTATION_STYLE_ASSIGNMENT (( #398 ) ) ;
#398 = SURFACE_STYLE_USAGE ( .BOTH. , #399 ) ;
#399 = SURFACE_SIDE_STYLE ('',( #400 ) ) ;
#400 = SURFACE_STYLE_FILL_AREA ( #401 ) ;
#401 = FILL_AREA_STYLE ('',( #370 ) ) ;
ENDSEC;
END-ISO-10303-21;
