ISO-10303-21;
HEADER;
FILE_DESCRIPTION (( 'STEP AP203' ),
    '1' );
FILE_NAME ('Web Model 48513_48519.step',
    '2021-04-23T18:00:07',
    ( '' ),
    ( '' ),
    'SwSTEP 2.0',
    'SolidWorks 2018',
    '' );
FILE_SCHEMA (( 'CONFIG_CONTROL_DESIGN' ));
ENDSEC;

DATA;
#1 = DIRECTION ( 'NONE',  ( 0.000000000000000000, 0.000000000000000000, 1.000000000000000000 ) ) ;
#2 = ORIENTED_EDGE ( 'NONE', *, *, #219, .T. ) ;
#3 = APPROVAL_DATE_TIME ( #149, #246 ) ;
#4 = CARTESIAN_POINT ( 'NONE',  ( 0.000000000000000000, 0.000000000000000000, 4.500000000000000000 ) ) ;
#5 = DIRECTION ( 'NONE',  ( 1.000000000000000000, 0.000000000000000000, 0.000000000000000000 ) ) ;
#6 = CARTESIAN_POINT ( 'NONE',  ( 0.000000000000000000, 0.000000000000000000, -0.2000000000000000111 ) ) ;
#7 = ORIENTED_EDGE ( 'NONE', *, *, #137, .F. ) ;
#8 = APPROVAL_STATUS ( 'not_yet_approved' ) ;
#9 = PRODUCT_DEFINITION_FORMATION_WITH_SPECIFIED_SOURCE ( 'ANY', '', #14, .NOT_KNOWN. ) ;
#10 = EDGE_LOOP ( 'NONE', ( #16, #226 ) ) ;
#11 = ADVANCED_FACE ( 'NONE', ( #257 ), #131, .F. ) ;
#12 = PERSON_AND_ORGANIZATION ( #63, #322 ) ;
#13 = EDGE_CURVE ( 'NONE', #115, #243, #276, .T. ) ;
#14 = PRODUCT ( 'Web Model 48513_48519', 'Web Model 48513_48519', '', ( #215 ) ) ;
#15 = FACE_OUTER_BOUND ( 'NONE', #123, .T. ) ;
#16 = ORIENTED_EDGE ( 'NONE', *, *, #120, .T. ) ;
#17 = LOCAL_TIME ( 14, 0, 7.000000000000000000, #116 ) ;
#18 = DIRECTION ( 'NONE',  ( 1.000000000000000000, 0.000000000000000000, -0.000000000000000000 ) ) ;
#19 = ORIENTED_EDGE ( 'NONE', *, *, #57, .F. ) ;
#20 = AXIS2_PLACEMENT_3D ( 'NONE', #186, #181, #133 ) ;
#21 = FACE_OUTER_BOUND ( 'NONE', #234, .T. ) ;
#22 = DIRECTION ( 'NONE',  ( 0.000000000000000000, 0.000000000000000000, 1.000000000000000000 ) ) ;
#23 = CIRCLE ( 'NONE', #223, 22.85000000000000142 ) ;
#24 = DIRECTION ( 'NONE',  ( 1.000000000000000000, 0.000000000000000000, 0.000000000000000000 ) ) ;
#25 = FACE_OUTER_BOUND ( 'NONE', #216, .T. ) ;
#26 = DIRECTION ( 'NONE',  ( 1.000000000000000000, 0.000000000000000000, -0.000000000000000000 ) ) ;
#27 = SECURITY_CLASSIFICATION ( '', '', #245 ) ;
#28 =( NAMED_UNIT ( * ) SI_UNIT ( $, .STERADIAN. ) SOLID_ANGLE_UNIT ( ) );
#29 = DIRECTION ( 'NONE',  ( 1.000000000000000000, 0.000000000000000000, 0.000000000000000000 ) ) ;
#30 = FACE_OUTER_BOUND ( 'NONE', #66, .T. ) ;
#31 = ORIENTED_EDGE ( 'NONE', *, *, #13, .F. ) ;
#32 = SHAPE_DEFINITION_REPRESENTATION ( #311, #253 ) ;
#33 = COORDINATED_UNIVERSAL_TIME_OFFSET ( 5, 0, .BEHIND. ) ;
#34 = CC_DESIGN_PERSON_AND_ORGANIZATION_ASSIGNMENT ( #12, #325, ( #9 ) ) ;
#35 = DIRECTION ( 'NONE',  ( 0.000000000000000000, 0.000000000000000000, 1.000000000000000000 ) ) ;
#36 = DIRECTION ( 'NONE',  ( 1.000000000000000000, 0.000000000000000000, 0.000000000000000000 ) ) ;
#37 = EDGE_LOOP ( 'NONE', ( #73, #176 ) ) ;
#38 = COORDINATED_UNIVERSAL_TIME_OFFSET ( 5, 0, .BEHIND. ) ;
#39 = ADVANCED_FACE ( 'NONE', ( #267, #94 ), #306, .T. ) ;
#40 = AXIS2_PLACEMENT_3D ( 'NONE', #277, #233, #202 ) ;
#41 = VECTOR ( 'NONE', #53, 1000.000000000000000 ) ;
#42 = EDGE_CURVE ( 'NONE', #155, #192, #58, .T. ) ;
#43 = VERTEX_POINT ( 'NONE', #314 ) ;
#44 = AXIS2_PLACEMENT_3D ( 'NONE', #310, #333, #24 ) ;
#45 = CIRCLE ( 'NONE', #265, 25.00000000000000000 ) ;
#46 = DIRECTION ( 'NONE',  ( 0.000000000000000000, 0.000000000000000000, 1.000000000000000000 ) ) ;
#47 = DIRECTION ( 'NONE',  ( 0.000000000000000000, 0.000000000000000000, 1.000000000000000000 ) ) ;
#48 = AXIS2_PLACEMENT_3D ( 'NONE', #239, #1, #26 ) ;
#49 = CARTESIAN_POINT ( 'NONE',  ( 0.000000000000000000, 0.000000000000000000, 4.500000000000000000 ) ) ;
#50 = CIRCLE ( 'NONE', #249, 22.85000000000000142 ) ;
#51 = PLANE ( 'NONE',  #212 ) ;
#52 = CARTESIAN_POINT ( 'NONE',  ( 0.000000000000000000, 0.000000000000000000, 4.500000000000000000 ) ) ;
#53 = DIRECTION ( 'NONE',  ( 0.000000000000000000, 0.000000000000000000, 1.000000000000000000 ) ) ;
#54 = FACE_OUTER_BOUND ( 'NONE', #78, .T. ) ;
#55 = ORIENTED_EDGE ( 'NONE', *, *, #254, .F. ) ;
#56 = APPLICATION_CONTEXT ( 'configuration controlled 3d designs of mechanical parts and assemblies' ) ;
#57 = EDGE_CURVE ( 'NONE', #43, #88, #329, .T. ) ;
#58 = CIRCLE ( 'NONE', #182, 22.85000000000000142 ) ;
#59 = APPROVAL_ROLE ( '' ) ;
#60 = AXIS2_PLACEMENT_3D ( 'NONE', #318, #35, #36 ) ;
#61 = VERTEX_POINT ( 'NONE', #331 ) ;
#62 = CC_DESIGN_APPROVAL ( #246, ( #27 ) ) ;
#63 = PERSON ( 'UNSPECIFIED', 'UNSPECIFIED', 'UNSPECIFIED', ('UNSPECIFIED'), ('UNSPECIFIED'), ('UNSPECIFIED') ) ;
#64 = ORIENTED_EDGE ( 'NONE', *, *, #153, .F. ) ;
#65 = DIRECTION ( 'NONE',  ( 1.000000000000000000, 0.000000000000000000, 0.000000000000000000 ) ) ;
#66 = EDGE_LOOP ( 'NONE', ( #31, #299, #235, #274 ) ) ;
#67 = DIRECTION ( 'NONE',  ( 0.000000000000000000, 0.000000000000000000, 1.000000000000000000 ) ) ;
#68 = COORDINATED_UNIVERSAL_TIME_OFFSET ( 5, 0, .BEHIND. ) ;
#69 = CARTESIAN_POINT ( 'NONE',  ( 0.000000000000000000, 0.000000000000000000, -0.2000000000000000111 ) ) ;
#70 = CARTESIAN_POINT ( 'NONE',  ( 25.00000000000000000, 0.000000000000000000, 4.500000000000000000 ) ) ;
#71 = CIRCLE ( 'NONE', #328, 25.00000000000000000 ) ;
#72 = EDGE_CURVE ( 'NONE', #192, #155, #251, .T. ) ;
#73 = ORIENTED_EDGE ( 'NONE', *, *, #109, .T. ) ;
#74 = CARTESIAN_POINT ( 'NONE',  ( 0.000000000000000000, 0.000000000000000000, -0.2000000000000000111 ) ) ;
#75 = DIRECTION ( 'NONE',  ( 1.000000000000000000, 0.000000000000000000, 0.000000000000000000 ) ) ;
#76 = DIRECTION ( 'NONE',  ( 1.000000000000000000, 0.000000000000000000, 0.000000000000000000 ) ) ;
#77 = ORIENTED_EDGE ( 'NONE', *, *, #315, .F. ) ;
#78 = EDGE_LOOP ( 'NONE', ( #327, #244 ) ) ;
#79 = CC_DESIGN_SECURITY_CLASSIFICATION ( #27, ( #9 ) ) ;
#80 = DIRECTION ( 'NONE',  ( 0.000000000000000000, 0.000000000000000000, 1.000000000000000000 ) ) ;
#81 = PERSON_AND_ORGANIZATION ( #63, #322 ) ;
#82 = DIRECTION ( 'NONE',  ( 0.000000000000000000, 0.000000000000000000, 1.000000000000000000 ) ) ;
#83 = DIRECTION ( 'NONE',  ( 0.000000000000000000, 0.000000000000000000, 1.000000000000000000 ) ) ;
#84 = UNCERTAINTY_MEASURE_WITH_UNIT (LENGTH_MEASURE( 1.000000000000000082E-05 ), #288, 'distance_accuracy_value', 'NONE');
#85 = LINE ( 'NONE', #236, #248 ) ;
#86 = CARTESIAN_POINT ( 'NONE',  ( 25.00000000000000000, 0.000000000000000000, -0.2000000000000000111 ) ) ;
#87 = ORIENTED_EDGE ( 'NONE', *, *, #304, .T. ) ;
#88 = VERTEX_POINT ( 'NONE', #312 ) ;
#89 = ORIENTED_EDGE ( 'NONE', *, *, #13, .T. ) ;
#90 = PERSON_AND_ORGANIZATION_ROLE ( 'classification_officer' ) ;
#91 = DATE_AND_TIME ( #163, #171 ) ;
#92 = PERSON_AND_ORGANIZATION_ROLE ( 'creator' ) ;
#93 = CYLINDRICAL_SURFACE ( 'NONE', #307, 22.85000000000000142 ) ;
#94 = FACE_BOUND ( 'NONE', #294, .T. ) ;
#95 = EDGE_CURVE ( 'NONE', #61, #88, #183, .T. ) ;
#96 = MANIFOLD_SOLID_BREP ( 'Boss-Extrude2', #143 ) ;
#97 = LOCAL_TIME ( 14, 0, 7.000000000000000000, #105 ) ;
#98 = VERTEX_POINT ( 'NONE', #70 ) ;
#99 = APPROVAL ( #117, 'UNSPECIFIED' ) ;
#100 = CARTESIAN_POINT ( 'NONE',  ( 22.85000000000000142, 0.000000000000000000, -0.2000000000000000111 ) ) ;
#101 = FACE_OUTER_BOUND ( 'NONE', #197, .T. ) ;
#102 = CARTESIAN_POINT ( 'NONE',  ( 0.000000000000000000, 0.000000000000000000, 0.000000000000000000 ) ) ;
#103 = DIRECTION ( 'NONE',  ( 1.000000000000000000, 0.000000000000000000, 0.000000000000000000 ) ) ;
#104 = CARTESIAN_POINT ( 'NONE',  ( 0.000000000000000000, 0.000000000000000000, 3.000000000000000000 ) ) ;
#105 = COORDINATED_UNIVERSAL_TIME_OFFSET ( 5, 0, .BEHIND. ) ;
#106 = ORIENTED_EDGE ( 'NONE', *, *, #57, .T. ) ;
#107 = DIRECTION ( 'NONE',  ( 0.000000000000000000, 0.000000000000000000, 1.000000000000000000 ) ) ;
#108 = APPROVAL_PERSON_ORGANIZATION ( #178, #218, #59 ) ;
#109 = EDGE_CURVE ( 'NONE', #335, #168, #114, .T. ) ;
#110 = CARTESIAN_POINT ( 'NONE',  ( 0.000000000000000000, 0.000000000000000000, -0.2000000000000000111 ) ) ;
#111 = LINE ( 'NONE', #209, #41 ) ;
#112 = ADVANCED_FACE ( 'NONE', ( #169 ), #51, .T. ) ;
#113 = DATE_TIME_ROLE ( 'classification_date' ) ;
#114 = CIRCLE ( 'NONE', #165, 22.85000000000000142 ) ;
#115 = VERTEX_POINT ( 'NONE', #279 ) ;
#116 = COORDINATED_UNIVERSAL_TIME_OFFSET ( 5, 0, .BEHIND. ) ;
#117 = APPROVAL_STATUS ( 'not_yet_approved' ) ;
#118 = ADVANCED_FACE ( 'NONE', ( #25 ), #189, .F. ) ;
#119 = LINE ( 'NONE', #317, #220 ) ;
#120 = EDGE_CURVE ( 'NONE', #43, #286, #50, .T. ) ;
#121 = PERSON_AND_ORGANIZATION ( #63, #322 ) ;
#122 = CC_DESIGN_DATE_AND_TIME_ASSIGNMENT ( #296, #297, ( #237 ) ) ;
#123 = EDGE_LOOP ( 'NONE', ( #210, #89, #224, #77 ) ) ;
#124 = AXIS2_PLACEMENT_3D ( 'NONE', #69, #205, #232 ) ;
#125 = DATE_AND_TIME ( #258, #201 ) ;
#126 = CYLINDRICAL_SURFACE ( 'NONE', #278, 25.00000000000000000 ) ;
#127 = CC_DESIGN_PERSON_AND_ORGANIZATION_ASSIGNMENT ( #145, #90, ( #27 ) ) ;
#128 = DIRECTION ( 'NONE',  ( -0.000000000000000000, -0.000000000000000000, -1.000000000000000000 ) ) ;
#129 = CARTESIAN_POINT ( 'NONE',  ( -22.85000000000000142, 2.798317936051702316E-15, -0.2000000000000000111 ) ) ;
#130 = CARTESIAN_POINT ( 'NONE',  ( 22.85000000000000142, 0.000000000000000000, 0.000000000000000000 ) ) ;
#131 = CYLINDRICAL_SURFACE ( 'NONE', #268, 22.85000000000000142 ) ;
#132 = CARTESIAN_POINT ( 'NONE',  ( -22.85000000000000142, 2.798317936051702316E-15, -0.2000000000000000111 ) ) ;
#133 = DIRECTION ( 'NONE',  ( 1.000000000000000000, 0.000000000000000000, 0.000000000000000000 ) ) ;
#134 = ORIENTED_EDGE ( 'NONE', *, *, #250, .T. ) ;
#135 = DIRECTION ( 'NONE',  ( 1.000000000000000000, 0.000000000000000000, -0.000000000000000000 ) ) ;
#136 = DIRECTION ( 'NONE',  ( 0.000000000000000000, 0.000000000000000000, 1.000000000000000000 ) ) ;
#137 = EDGE_CURVE ( 'NONE', #286, #43, #23, .T. ) ;
#138 = CARTESIAN_POINT ( 'NONE',  ( 0.000000000000000000, 0.000000000000000000, 0.000000000000000000 ) ) ;
#139 = CARTESIAN_POINT ( 'NONE',  ( -25.00000000000000000, 3.061616997868383043E-15, 4.500000000000000000 ) ) ;
#140 = CC_DESIGN_DATE_AND_TIME_ASSIGNMENT ( #125, #113, ( #27 ) ) ;
#141 = AXIS2_PLACEMENT_3D ( 'NONE', #164, #190, #291 ) ;
#142 = APPROVAL_STATUS ( 'not_yet_approved' ) ;
#143 = CLOSED_SHELL ( 'NONE', ( #11, #324, #118, #260, #185, #269, #285, #39, #194, #112 ) ) ;
#144 = EDGE_CURVE ( 'NONE', #168, #335, #293, .T. ) ;
#145 = PERSON_AND_ORGANIZATION ( #63, #322 ) ;
#146 = VECTOR ( 'NONE', #228, 1000.000000000000000 ) ;
#147 = ORIENTED_EDGE ( 'NONE', *, *, #144, .F. ) ;
#148 = EDGE_CURVE ( 'NONE', #115, #221, #316, .T. ) ;
#149 = DATE_AND_TIME ( #214, #157 ) ;
#150 = APPROVAL_DATE_TIME ( #222, #99 ) ;
#151 = DIRECTION ( 'NONE',  ( 0.000000000000000000, 0.000000000000000000, 1.000000000000000000 ) ) ;
#152 = ORIENTED_EDGE ( 'NONE', *, *, #241, .T. ) ;
#153 = EDGE_CURVE ( 'NONE', #286, #61, #154, .T. ) ;
#154 = LINE ( 'NONE', #132, #146 ) ;
#155 = VERTEX_POINT ( 'NONE', #130 ) ;
#156 = DIRECTION ( 'NONE',  ( 0.000000000000000000, 0.000000000000000000, 1.000000000000000000 ) ) ;
#157 = LOCAL_TIME ( 14, 0, 7.000000000000000000, #33 ) ;
#158 = DIRECTION ( 'NONE',  ( 1.000000000000000000, 0.000000000000000000, 0.000000000000000000 ) ) ;
#159 = AXIS2_PLACEMENT_3D ( 'NONE', #110, #167, #5 ) ;
#160 = EDGE_LOOP ( 'NONE', ( #2, #87 ) ) ;
#161 = ORIENTED_EDGE ( 'NONE', *, *, #72, .F. ) ;
#162 = APPROVAL_PERSON_ORGANIZATION ( #174, #99, #170 ) ;
#163 = CALENDAR_DATE ( 2021, 23, 4 ) ;
#164 = CARTESIAN_POINT ( 'NONE',  ( 0.000000000000000000, 0.000000000000000000, 4.500000000000000000 ) ) ;
#165 = AXIS2_PLACEMENT_3D ( 'NONE', #180, #156, #284 ) ;
#166 = CIRCLE ( 'NONE', #141, 22.85000000000000142 ) ;
#167 = DIRECTION ( 'NONE',  ( 0.000000000000000000, 0.000000000000000000, 1.000000000000000000 ) ) ;
#168 = VERTEX_POINT ( 'NONE', #129 ) ;
#169 = FACE_OUTER_BOUND ( 'NONE', #10, .T. ) ;
#170 = APPROVAL_ROLE ( '' ) ;
#171 = LOCAL_TIME ( 14, 0, 7.000000000000000000, #38 ) ;
#172 = PERSON_AND_ORGANIZATION_ROLE ( 'creator' ) ;
#173 = CYLINDRICAL_SURFACE ( 'NONE', #124, 25.00000000000000000 ) ;
#174 = PERSON_AND_ORGANIZATION ( #63, #322 ) ;
#175 = DIRECTION ( 'NONE',  ( 0.000000000000000000, 0.000000000000000000, 1.000000000000000000 ) ) ;
#176 = ORIENTED_EDGE ( 'NONE', *, *, #144, .T. ) ;
#177 =( GEOMETRIC_REPRESENTATION_CONTEXT ( 3 ) GLOBAL_UNCERTAINTY_ASSIGNED_CONTEXT ( ( #84 ) ) GLOBAL_UNIT_ASSIGNED_CONTEXT ( ( #288, #188, #28 ) ) REPRESENTATION_CONTEXT ( 'NONE', 'WORKASPACE' ) );
#178 = PERSON_AND_ORGANIZATION ( #63, #322 ) ;
#179 = CARTESIAN_POINT ( 'NONE',  ( 0.000000000000000000, 0.000000000000000000, 4.500000000000000000 ) ) ;
#180 = CARTESIAN_POINT ( 'NONE',  ( 0.000000000000000000, 0.000000000000000000, -0.2000000000000000111 ) ) ;
#181 = DIRECTION ( 'NONE',  ( -0.000000000000000000, -0.000000000000000000, -1.000000000000000000 ) ) ;
#182 = AXIS2_PLACEMENT_3D ( 'NONE', #102, #128, #308 ) ;
#183 = CIRCLE ( 'NONE', #273, 22.85000000000000142 ) ;
#184 = CARTESIAN_POINT ( 'NONE',  ( 0.000000000000000000, 0.000000000000000000, 3.000000000000000000 ) ) ;
#185 = ADVANCED_FACE ( 'NONE', ( #30 ), #173, .T. ) ;
#186 = CARTESIAN_POINT ( 'NONE',  ( 0.000000000000000000, 0.000000000000000000, 0.000000000000000000 ) ) ;
#187 = PRODUCT_RELATED_PRODUCT_CATEGORY ( 'detail', '', ( #14 ) ) ;
#188 =( NAMED_UNIT ( * ) PLANE_ANGLE_UNIT ( ) SI_UNIT ( $, .RADIAN. ) );
#189 = CYLINDRICAL_SURFACE ( 'NONE', #230, 22.85000000000000142 ) ;
#190 = DIRECTION ( 'NONE',  ( 0.000000000000000000, 0.000000000000000000, 1.000000000000000000 ) ) ;
#191 = PLANE ( 'NONE',  #290 ) ;
#192 = VERTEX_POINT ( 'NONE', #256 ) ;
#193 = DESIGN_CONTEXT ( 'detailed design', #300, 'design' ) ;
#194 = ADVANCED_FACE ( 'NONE', ( #54 ), #191, .F. ) ;
#195 = CC_DESIGN_APPROVAL ( #99, ( #237 ) ) ;
#196 = PERSON_AND_ORGANIZATION_ROLE ( 'design_owner' ) ;
#197 = EDGE_LOOP ( 'NONE', ( #64, #199, #106, #134 ) ) ;
#198 = DIRECTION ( 'NONE',  ( 0.000000000000000000, 0.000000000000000000, 1.000000000000000000 ) ) ;
#199 = ORIENTED_EDGE ( 'NONE', *, *, #120, .F. ) ;
#200 = AXIS2_PLACEMENT_3D ( 'NONE', #6, #80, #29 ) ;
#201 = LOCAL_TIME ( 14, 0, 7.000000000000000000, #68 ) ;
#202 = DIRECTION ( 'NONE',  ( 1.000000000000000000, 0.000000000000000000, 0.000000000000000000 ) ) ;
#203 = DIRECTION ( 'NONE',  ( 1.000000000000000000, 0.000000000000000000, -0.000000000000000000 ) ) ;
#204 = EDGE_LOOP ( 'NONE', ( #7, #302, #255, #19 ) ) ;
#205 = DIRECTION ( 'NONE',  ( 0.000000000000000000, 0.000000000000000000, 1.000000000000000000 ) ) ;
#206 = DIRECTION ( 'NONE',  ( 0.000000000000000000, 0.000000000000000000, 1.000000000000000000 ) ) ;
#207 = CC_DESIGN_PERSON_AND_ORGANIZATION_ASSIGNMENT ( #240, #196, ( #14 ) ) ;
#208 = CARTESIAN_POINT ( 'NONE',  ( 0.000000000000000000, 0.000000000000000000, -0.2000000000000000111 ) ) ;
#209 = CARTESIAN_POINT ( 'NONE',  ( -22.85000000000000142, 2.798317936051702316E-15, -0.2000000000000000111 ) ) ;
#210 = ORIENTED_EDGE ( 'NONE', *, *, #309, .T. ) ;
#211 = CARTESIAN_POINT ( 'NONE',  ( 0.000000000000000000, 0.000000000000000000, -0.2000000000000000111 ) ) ;
#212 = AXIS2_PLACEMENT_3D ( 'NONE', #259, #22, #203 ) ;
#213 = EDGE_LOOP ( 'NONE', ( #298, #271 ) ) ;
#214 = CALENDAR_DATE ( 2021, 23, 4 ) ;
#215 = MECHANICAL_CONTEXT ( 'NONE', #56, 'mechanical' ) ;
#216 = EDGE_LOOP ( 'NONE', ( #147, #313, #252, #334 ) ) ;
#217 = APPROVAL_DATE_TIME ( #91, #218 ) ;
#218 = APPROVAL ( #142, 'UNSPECIFIED' ) ;
#219 = EDGE_CURVE ( 'NONE', #98, #243, #45, .T. ) ;
#220 = VECTOR ( 'NONE', #136, 1000.000000000000000 ) ;
#221 = VERTEX_POINT ( 'NONE', #86 ) ;
#222 = DATE_AND_TIME ( #275, #97 ) ;
#223 = AXIS2_PLACEMENT_3D ( 'NONE', #104, #281, #158 ) ;
#224 = ORIENTED_EDGE ( 'NONE', *, *, #219, .F. ) ;
#225 = CARTESIAN_POINT ( 'NONE',  ( -25.00000000000000000, 3.061616997868383043E-15, -0.2000000000000000111 ) ) ;
#226 = ORIENTED_EDGE ( 'NONE', *, *, #137, .T. ) ;
#227 = CARTESIAN_POINT ( 'NONE',  ( 0.000000000000000000, 0.000000000000000000, -0.2000000000000000111 ) ) ;
#228 = DIRECTION ( 'NONE',  ( 0.000000000000000000, 0.000000000000000000, 1.000000000000000000 ) ) ;
#229 = ORIENTED_EDGE ( 'NONE', *, *, #250, .F. ) ;
#230 = AXIS2_PLACEMENT_3D ( 'NONE', #74, #47, #231 ) ;
#231 = DIRECTION ( 'NONE',  ( 1.000000000000000000, 0.000000000000000000, 0.000000000000000000 ) ) ;
#232 = DIRECTION ( 'NONE',  ( 1.000000000000000000, 0.000000000000000000, 0.000000000000000000 ) ) ;
#233 = DIRECTION ( 'NONE',  ( 0.000000000000000000, 0.000000000000000000, 1.000000000000000000 ) ) ;
#234 = EDGE_LOOP ( 'NONE', ( #55, #280, #152, #161 ) ) ;
#235 = ORIENTED_EDGE ( 'NONE', *, *, #315, .T. ) ;
#236 = CARTESIAN_POINT ( 'NONE',  ( 25.00000000000000000, 0.000000000000000000, -0.2000000000000000111 ) ) ;
#237 = PRODUCT_DEFINITION ( 'UNKNOWN', '', #9, #193 ) ;
#238 = DIRECTION ( 'NONE',  ( 1.000000000000000000, 0.000000000000000000, 0.000000000000000000 ) ) ;
#239 = CARTESIAN_POINT ( 'NONE',  ( 0.000000000000000000, 0.000000000000000000, -0.2000000000000000111 ) ) ;
#240 = PERSON_AND_ORGANIZATION ( #63, #322 ) ;
#241 = EDGE_CURVE ( 'NONE', #335, #155, #119, .T. ) ;
#242 = APPLICATION_PROTOCOL_DEFINITION ( 'international standard', 'config_control_design', 1994, #56 ) ;
#243 = VERTEX_POINT ( 'NONE', #139 ) ;
#244 = ORIENTED_EDGE ( 'NONE', *, *, #72, .T. ) ;
#245 = SECURITY_CLASSIFICATION_LEVEL ( 'unclassified' ) ;
#246 = APPROVAL ( #8, 'UNSPECIFIED' ) ;
#247 = APPROVAL_PERSON_ORGANIZATION ( #121, #246, #272 ) ;
#248 = VECTOR ( 'NONE', #82, 1000.000000000000000 ) ;
#249 = AXIS2_PLACEMENT_3D ( 'NONE', #184, #46, #103 ) ;
#250 = EDGE_CURVE ( 'NONE', #88, #61, #166, .T. ) ;
#251 = CIRCLE ( 'NONE', #20, 22.85000000000000142 ) ;
#252 = ORIENTED_EDGE ( 'NONE', *, *, #42, .F. ) ;
#253 = ADVANCED_BREP_SHAPE_REPRESENTATION ( 'Web Model 48513_48519', ( #96, #60 ), #177 ) ;
#254 = EDGE_CURVE ( 'NONE', #168, #192, #111, .T. ) ;
#255 = ORIENTED_EDGE ( 'NONE', *, *, #95, .T. ) ;
#256 = CARTESIAN_POINT ( 'NONE',  ( -22.85000000000000142, 2.798317936051702316E-15, 0.000000000000000000 ) ) ;
#257 = FACE_OUTER_BOUND ( 'NONE', #204, .T. ) ;
#258 = CALENDAR_DATE ( 2021, 23, 4 ) ;
#259 = CARTESIAN_POINT ( 'NONE',  ( 0.000000000000000000, 0.000000000000000000, 3.000000000000000000 ) ) ;
#260 = ADVANCED_FACE ( 'NONE', ( #21 ), #262, .F. ) ;
#261 = CARTESIAN_POINT ( 'NONE',  ( -22.85000000000000142, 2.798317936051702316E-15, 3.000000000000000000 ) ) ;
#262 = CYLINDRICAL_SURFACE ( 'NONE', #200, 22.85000000000000142 ) ;
#263 = DIRECTION ( 'NONE',  ( 0.000000000000000000, 0.000000000000000000, 1.000000000000000000 ) ) ;
#264 = DIRECTION ( 'NONE',  ( 1.000000000000000000, 0.000000000000000000, 0.000000000000000000 ) ) ;
#265 = AXIS2_PLACEMENT_3D ( 'NONE', #4, #107, #295 ) ;
#266 = DIRECTION ( 'NONE',  ( 0.000000000000000000, 0.000000000000000000, 1.000000000000000000 ) ) ;
#267 = FACE_OUTER_BOUND ( 'NONE', #160, .T. ) ;
#268 = AXIS2_PLACEMENT_3D ( 'NONE', #227, #67, #65 ) ;
#269 = ADVANCED_FACE ( 'NONE', ( #330, #326 ), #292, .F. ) ;
#270 = APPLICATION_PROTOCOL_DEFINITION ( 'international standard', 'config_control_design', 1994, #300 ) ;
#271 = ORIENTED_EDGE ( 'NONE', *, *, #148, .F. ) ;
#272 = APPROVAL_ROLE ( '' ) ;
#273 = AXIS2_PLACEMENT_3D ( 'NONE', #49, #206, #75 ) ;
#274 = ORIENTED_EDGE ( 'NONE', *, *, #304, .F. ) ;
#275 = CALENDAR_DATE ( 2021, 23, 4 ) ;
#276 = LINE ( 'NONE', #225, #321 ) ;
#277 = CARTESIAN_POINT ( 'NONE',  ( 0.000000000000000000, 0.000000000000000000, -0.2000000000000000111 ) ) ;
#278 = AXIS2_PLACEMENT_3D ( 'NONE', #208, #263, #76 ) ;
#279 = CARTESIAN_POINT ( 'NONE',  ( -25.00000000000000000, 3.061616997868383043E-15, -0.2000000000000000111 ) ) ;
#280 = ORIENTED_EDGE ( 'NONE', *, *, #109, .F. ) ;
#281 = DIRECTION ( 'NONE',  ( 0.000000000000000000, 0.000000000000000000, 1.000000000000000000 ) ) ;
#282 = CALENDAR_DATE ( 2021, 23, 4 ) ;
#283 = AXIS2_PLACEMENT_3D ( 'NONE', #179, #175, #18 ) ;
#284 = DIRECTION ( 'NONE',  ( 1.000000000000000000, 0.000000000000000000, 0.000000000000000000 ) ) ;
#285 = ADVANCED_FACE ( 'NONE', ( #101 ), #93, .F. ) ;
#286 = VERTEX_POINT ( 'NONE', #261 ) ;
#287 = CARTESIAN_POINT ( 'NONE',  ( 22.85000000000000142, 0.000000000000000000, -0.2000000000000000111 ) ) ;
#288 =( LENGTH_UNIT ( ) NAMED_UNIT ( * ) SI_UNIT ( .MILLI., .METRE. ) );
#289 = PERSON_AND_ORGANIZATION ( #63, #322 ) ;
#290 = AXIS2_PLACEMENT_3D ( 'NONE', #138, #266, #135 ) ;
#291 = DIRECTION ( 'NONE',  ( 1.000000000000000000, 0.000000000000000000, 0.000000000000000000 ) ) ;
#292 = PLANE ( 'NONE',  #48 ) ;
#293 = CIRCLE ( 'NONE', #40, 22.85000000000000142 ) ;
#294 = EDGE_LOOP ( 'NONE', ( #229, #323 ) ) ;
#295 = DIRECTION ( 'NONE',  ( 1.000000000000000000, 0.000000000000000000, 0.000000000000000000 ) ) ;
#296 = DATE_AND_TIME ( #282, #17 ) ;
#297 = DATE_TIME_ROLE ( 'creation_date' ) ;
#298 = ORIENTED_EDGE ( 'NONE', *, *, #309, .F. ) ;
#299 = ORIENTED_EDGE ( 'NONE', *, *, #148, .T. ) ;
#300 = APPLICATION_CONTEXT ( 'configuration controlled 3d designs of mechanical parts and assemblies' ) ;
#301 = CIRCLE ( 'NONE', #159, 25.00000000000000000 ) ;
#302 = ORIENTED_EDGE ( 'NONE', *, *, #153, .T. ) ;
#303 = CC_DESIGN_PERSON_AND_ORGANIZATION_ASSIGNMENT ( #289, #172, ( #237 ) ) ;
#304 = EDGE_CURVE ( 'NONE', #243, #98, #71, .T. ) ;
#305 = VECTOR ( 'NONE', #151, 1000.000000000000000 ) ;
#306 = PLANE ( 'NONE',  #283 ) ;
#307 = AXIS2_PLACEMENT_3D ( 'NONE', #211, #320, #238 ) ;
#308 = DIRECTION ( 'NONE',  ( 1.000000000000000000, 0.000000000000000000, 0.000000000000000000 ) ) ;
#309 = EDGE_CURVE ( 'NONE', #221, #115, #301, .T. ) ;
#310 = CARTESIAN_POINT ( 'NONE',  ( 0.000000000000000000, 0.000000000000000000, -0.2000000000000000111 ) ) ;
#311 = PRODUCT_DEFINITION_SHAPE ( 'NONE', 'NONE',  #237 ) ;
#312 = CARTESIAN_POINT ( 'NONE',  ( 22.85000000000000142, 0.000000000000000000, 4.500000000000000000 ) ) ;
#313 = ORIENTED_EDGE ( 'NONE', *, *, #254, .T. ) ;
#314 = CARTESIAN_POINT ( 'NONE',  ( 22.85000000000000142, 0.000000000000000000, 3.000000000000000000 ) ) ;
#315 = EDGE_CURVE ( 'NONE', #221, #98, #85, .T. ) ;
#316 = CIRCLE ( 'NONE', #44, 25.00000000000000000 ) ;
#317 = CARTESIAN_POINT ( 'NONE',  ( 22.85000000000000142, 0.000000000000000000, -0.2000000000000000111 ) ) ;
#318 = CARTESIAN_POINT ( 'NONE',  ( 0.000000000000000000, 0.000000000000000000, 0.000000000000000000 ) ) ;
#319 = CC_DESIGN_PERSON_AND_ORGANIZATION_ASSIGNMENT ( #81, #92, ( #9 ) ) ;
#320 = DIRECTION ( 'NONE',  ( 0.000000000000000000, 0.000000000000000000, 1.000000000000000000 ) ) ;
#321 = VECTOR ( 'NONE', #198, 1000.000000000000000 ) ;
#322 = ORGANIZATION ( 'UNSPECIFIED', 'UNSPECIFIED', '' ) ;
#323 = ORIENTED_EDGE ( 'NONE', *, *, #95, .F. ) ;
#324 = ADVANCED_FACE ( 'NONE', ( #15 ), #126, .T. ) ;
#325 = PERSON_AND_ORGANIZATION_ROLE ( 'design_supplier' ) ;
#326 = FACE_OUTER_BOUND ( 'NONE', #213, .T. ) ;
#327 = ORIENTED_EDGE ( 'NONE', *, *, #42, .T. ) ;
#328 = AXIS2_PLACEMENT_3D ( 'NONE', #52, #83, #264 ) ;
#329 = LINE ( 'NONE', #100, #305 ) ;
#330 = FACE_BOUND ( 'NONE', #37, .T. ) ;
#331 = CARTESIAN_POINT ( 'NONE',  ( -22.85000000000000142, 2.798317936051702316E-15, 4.500000000000000000 ) ) ;
#332 = CC_DESIGN_APPROVAL ( #218, ( #9 ) ) ;
#333 = DIRECTION ( 'NONE',  ( 0.000000000000000000, 0.000000000000000000, 1.000000000000000000 ) ) ;
#334 = ORIENTED_EDGE ( 'NONE', *, *, #241, .F. ) ;
#335 = VERTEX_POINT ( 'NONE', #287 ) ;
ENDSEC;
END-ISO-10303-21;
