ISO-10303-21;
HEADER;
FILE_DESCRIPTION (( 'STEP AP203' ),
    '1' );
FILE_NAME ('Web Model 12454_12454.step',
    '2019-11-01T15:21:22',
    ( '' ),
    ( '' ),
    'SwSTEP 2.0',
    'SolidWorks 2018',
    '' );
FILE_SCHEMA (( 'CONFIG_CONTROL_DESIGN' ));
ENDSEC;

DATA;
#1 = AXIS2_PLACEMENT_3D ( 'NONE', #143, #17, #99 ) ;
#2 = CARTESIAN_POINT ( 'NONE',  ( 0.8000000000000000444, 0.0000000000000000000, 0.0000000000000000000 ) ) ;
#3 = PERSON_AND_ORGANIZATION_ROLE ( 'classification_officer' ) ;
#4 = EDGE_CURVE ( 'NONE', #78, #25, #105, .T. ) ;
#5 = CARTESIAN_POINT ( 'NONE',  ( 0.8000000000000000444, 0.0000000000000000000, 0.0000000000000000000 ) ) ;
#6 = CALENDAR_DATE ( 2019, 1, 11 ) ;
#7 = ORIENTED_EDGE ( 'NONE', *, *, #4, .F. ) ;
#8 = EDGE_CURVE ( 'NONE', #22, #16, #132, .T. ) ;
#9 = ORIENTED_EDGE ( 'NONE', *, *, #8, .F. ) ;
#10 = AXIS2_PLACEMENT_3D ( 'NONE', #139, #14, #165 ) ;
#11 = AXIS2_PLACEMENT_3D ( 'NONE', #98, #163, #13 ) ;
#12 = CARTESIAN_POINT ( 'NONE',  ( 0.8000000000000000444, 0.0000000000000000000, 0.0000000000000000000 ) ) ;
#13 = DIRECTION ( 'NONE',  ( 0.0000000000000000000, 0.0000000000000000000, -1.000000000000000000 ) ) ;
#14 = DIRECTION ( 'NONE',  ( -1.000000000000000000, -0.0000000000000000000, -0.0000000000000000000 ) ) ;
#15 = LINE ( 'NONE', #175, #94 ) ;
#16 = VERTEX_POINT ( 'NONE', #148 ) ;
#17 = DIRECTION ( 'NONE',  ( 1.000000000000000000, 0.0000000000000000000, 0.0000000000000000000 ) ) ;
#18 =( NAMED_UNIT ( * ) SI_UNIT ( $, .STERADIAN. ) SOLID_ANGLE_UNIT ( ) );
#19 = PERSON_AND_ORGANIZATION ( #48, #96 ) ;
#20 = APPROVAL_ROLE ( '' ) ;
#21 = PRODUCT ( 'Web Model 12454_12454', 'Web Model 12454_12454', '', ( #89 ) ) ;
#22 = VERTEX_POINT ( 'NONE', #95 ) ;
#23 = EDGE_CURVE ( 'NONE', #16, #22, #69, .T. ) ;
#24 = CYLINDRICAL_SURFACE ( 'NONE', #10, 12.50000000000000000 ) ;
#25 = VERTEX_POINT ( 'NONE', #61 ) ;
#26 = COORDINATED_UNIVERSAL_TIME_OFFSET ( 5, 0, .BEHIND. ) ;
#27 = CARTESIAN_POINT ( 'NONE',  ( 0.8000000000000000444, 0.0000000000000000000, 0.0000000000000000000 ) ) ;
#28 = DIRECTION ( 'NONE',  ( 1.000000000000000000, 0.0000000000000000000, 0.0000000000000000000 ) ) ;
#29 = CALENDAR_DATE ( 2019, 1, 11 ) ;
#30 = DIRECTION ( 'NONE',  ( 0.0000000000000000000, 0.0000000000000000000, 1.000000000000000000 ) ) ;
#31 = DIRECTION ( 'NONE',  ( 0.0000000000000000000, 0.0000000000000000000, 1.000000000000000000 ) ) ;
#32 = AXIS2_PLACEMENT_3D ( 'NONE', #12, #140, #109 ) ;
#33 = PERSON_AND_ORGANIZATION_ROLE ( 'creator' ) ;
#34 = DATE_AND_TIME ( #59, #92 ) ;
#35 = CYLINDRICAL_SURFACE ( 'NONE', #65, 12.50000000000000000 ) ;
#36 = EDGE_CURVE ( 'NONE', #22, #78, #133, .T. ) ;
#37 = ORIENTED_EDGE ( 'NONE', *, *, #36, .T. ) ;
#38 = AXIS2_PLACEMENT_3D ( 'NONE', #110, #150, #70 ) ;
#39 = VECTOR ( 'NONE', #45, 1000.000000000000000 ) ;
#40 = LOCAL_TIME ( 11, 21, 22.00000000000000000, #149 ) ;
#41 = APPROVAL ( #72, 'UNSPECIFIED' ) ;
#42 = CARTESIAN_POINT ( 'NONE',  ( -0.8000000000000000444, 0.0000000000000000000, 12.50000000000000000 ) ) ;
#43 = CARTESIAN_POINT ( 'NONE',  ( 0.8000000000000000444, 0.0000000000000000000, 12.50000000000000000 ) ) ;
#44 = EDGE_LOOP ( 'NONE', ( #162, #123 ) ) ;
#45 = DIRECTION ( 'NONE',  ( -1.000000000000000000, -0.0000000000000000000, -0.0000000000000000000 ) ) ;
#46 = ORIENTED_EDGE ( 'NONE', *, *, #136, .T. ) ;
#47 = APPROVAL_STATUS ( 'not_yet_approved' ) ;
#48 = PERSON ( 'UNSPECIFIED', 'UNSPECIFIED', 'UNSPECIFIED', ('UNSPECIFIED'), ('UNSPECIFIED'), ('UNSPECIFIED') ) ;
#49 = APPROVAL_PERSON_ORGANIZATION ( #125, #160, #20 ) ;
#50 =( NAMED_UNIT ( * ) PLANE_ANGLE_UNIT ( ) SI_UNIT ( $, .RADIAN. ) );
#51 = CLOSED_SHELL ( 'NONE', ( #135, #146, #157, #80 ) ) ;
#52 = AXIS2_PLACEMENT_3D ( 'NONE', #27, #28, #121 ) ;
#53 = PRODUCT_DEFINITION_SHAPE ( 'NONE', 'NONE',  #154 ) ;
#54 = DATE_AND_TIME ( #120, #158 ) ;
#55 = CC_DESIGN_PERSON_AND_ORGANIZATION_ASSIGNMENT ( #84, #3, ( #101 ) ) ;
#56 = DATE_AND_TIME ( #6, #118 ) ;
#57 = FACE_OUTER_BOUND ( 'NONE', #108, .T. ) ;
#58 = ADVANCED_BREP_SHAPE_REPRESENTATION ( 'Web Model 12454_12454', ( #79, #169 ), #82 ) ;
#59 = CALENDAR_DATE ( 2019, 1, 11 ) ;
#60 = CC_DESIGN_APPROVAL ( #90, ( #154 ) ) ;
#61 = CARTESIAN_POINT ( 'NONE',  ( -0.8000000000000000444, 1.530808498934191521E-15, -12.50000000000000000 ) ) ;
#62 = FACE_OUTER_BOUND ( 'NONE', #44, .T. ) ;
#63 = CARTESIAN_POINT ( 'NONE',  ( 0.0000000000000000000, 0.0000000000000000000, 0.0000000000000000000 ) ) ;
#64 = APPROVAL_ROLE ( '' ) ;
#65 = AXIS2_PLACEMENT_3D ( 'NONE', #5, #87, #31 ) ;
#66 = ORIENTED_EDGE ( 'NONE', *, *, #117, .F. ) ;
#67 = PRODUCT_DEFINITION_FORMATION_WITH_SPECIFIED_SOURCE ( 'ANY', '', #21, .NOT_KNOWN. ) ;
#68 = LOCAL_TIME ( 11, 21, 22.00000000000000000, #26 ) ;
#69 = CIRCLE ( 'NONE', #52, 12.50000000000000000 ) ;
#70 = DIRECTION ( 'NONE',  ( 0.0000000000000000000, 0.0000000000000000000, -1.000000000000000000 ) ) ;
#71 = CC_DESIGN_PERSON_AND_ORGANIZATION_ASSIGNMENT ( #74, #144, ( #67 ) ) ;
#72 = APPROVAL_STATUS ( 'not_yet_approved' ) ;
#73 = DIRECTION ( 'NONE',  ( -1.000000000000000000, -0.0000000000000000000, -0.0000000000000000000 ) ) ;
#74 = PERSON_AND_ORGANIZATION ( #48, #96 ) ;
#75 = APPROVAL_STATUS ( 'not_yet_approved' ) ;
#76 = CC_DESIGN_APPROVAL ( #41, ( #67 ) ) ;
#77 = APPROVAL_DATE_TIME ( #111, #160 ) ;
#78 = VERTEX_POINT ( 'NONE', #42 ) ;
#79 = MANIFOLD_SOLID_BREP ( 'Boss-Extrude1', #51 ) ;
#80 = ADVANCED_FACE ( 'NONE', ( #57 ), #138, .F. ) ;
#81 = EDGE_LOOP ( 'NONE', ( #129, #46, #147, #106 ) ) ;
#82 =( GEOMETRIC_REPRESENTATION_CONTEXT ( 3 ) GLOBAL_UNCERTAINTY_ASSIGNED_CONTEXT ( ( #167 ) ) GLOBAL_UNIT_ASSIGNED_CONTEXT ( ( #166, #50, #18 ) ) REPRESENTATION_CONTEXT ( 'NONE', 'WORKASPACE' ) );
#83 = FACE_OUTER_BOUND ( 'NONE', #93, .T. ) ;
#84 = PERSON_AND_ORGANIZATION ( #48, #96 ) ;
#85 = CALENDAR_DATE ( 2019, 1, 11 ) ;
#86 = COORDINATED_UNIVERSAL_TIME_OFFSET ( 5, 0, .BEHIND. ) ;
#87 = DIRECTION ( 'NONE',  ( -1.000000000000000000, -0.0000000000000000000, -0.0000000000000000000 ) ) ;
#88 = APPLICATION_CONTEXT ( 'configuration controlled 3d designs of mechanical parts and assemblies' ) ;
#89 = MECHANICAL_CONTEXT ( 'NONE', #88, 'mechanical' ) ;
#90 = APPROVAL ( #47, 'UNSPECIFIED' ) ;
#91 = COORDINATED_UNIVERSAL_TIME_OFFSET ( 5, 0, .BEHIND. ) ;
#92 = LOCAL_TIME ( 11, 21, 22.00000000000000000, #86 ) ;
#93 = EDGE_LOOP ( 'NONE', ( #141, #9, #37, #174 ) ) ;
#94 = VECTOR ( 'NONE', #73, 1000.000000000000000 ) ;
#95 = CARTESIAN_POINT ( 'NONE',  ( 0.8000000000000000444, 0.0000000000000000000, 12.50000000000000000 ) ) ;
#96 = ORGANIZATION ( 'UNSPECIFIED', 'UNSPECIFIED', '' ) ;
#97 = CC_DESIGN_DATE_AND_TIME_ASSIGNMENT ( #34, #115, ( #154 ) ) ;
#98 = CARTESIAN_POINT ( 'NONE',  ( -0.8000000000000000444, 0.0000000000000000000, 0.0000000000000000000 ) ) ;
#99 = DIRECTION ( 'NONE',  ( 0.0000000000000000000, 0.0000000000000000000, -1.000000000000000000 ) ) ;
#100 = APPROVAL_DATE_TIME ( #170, #41 ) ;
#101 = SECURITY_CLASSIFICATION ( '', '', #102 ) ;
#102 = SECURITY_CLASSIFICATION_LEVEL ( 'unclassified' ) ;
#103 = CC_DESIGN_PERSON_AND_ORGANIZATION_ASSIGNMENT ( #164, #124, ( #67 ) ) ;
#104 = PERSON_AND_ORGANIZATION ( #48, #96 ) ;
#105 = CIRCLE ( 'NONE', #11, 12.50000000000000000 ) ;
#106 = ORIENTED_EDGE ( 'NONE', *, *, #36, .F. ) ;
#107 = AXIS2_PLACEMENT_3D ( 'NONE', #2, #156, #142 ) ;
#108 = EDGE_LOOP ( 'NONE', ( #7, #66 ) ) ;
#109 = DIRECTION ( 'NONE',  ( 0.0000000000000000000, 0.0000000000000000000, -1.000000000000000000 ) ) ;
#110 = CARTESIAN_POINT ( 'NONE',  ( -0.8000000000000000444, 0.0000000000000000000, 0.0000000000000000000 ) ) ;
#111 = DATE_AND_TIME ( #85, #40 ) ;
#112 = CC_DESIGN_SECURITY_CLASSIFICATION ( #101, ( #67 ) ) ;
#113 = PLANE ( 'NONE',  #107 ) ;
#114 = APPROVAL_ROLE ( '' ) ;
#115 = DATE_TIME_ROLE ( 'creation_date' ) ;
#116 = DIRECTION ( 'NONE',  ( 1.000000000000000000, 0.0000000000000000000, 0.0000000000000000000 ) ) ;
#117 = EDGE_CURVE ( 'NONE', #25, #78, #151, .T. ) ;
#118 = LOCAL_TIME ( 11, 21, 22.00000000000000000, #91 ) ;
#119 = DESIGN_CONTEXT ( 'detailed design', #168, 'design' ) ;
#120 = CALENDAR_DATE ( 2019, 1, 11 ) ;
#121 = DIRECTION ( 'NONE',  ( 0.0000000000000000000, 0.0000000000000000000, -1.000000000000000000 ) ) ;
#122 = PRODUCT_RELATED_PRODUCT_CATEGORY ( 'detail', '', ( #21 ) ) ;
#123 = ORIENTED_EDGE ( 'NONE', *, *, #23, .T. ) ;
#124 = PERSON_AND_ORGANIZATION_ROLE ( 'creator' ) ;
#125 = PERSON_AND_ORGANIZATION ( #48, #96 ) ;
#126 = COORDINATED_UNIVERSAL_TIME_OFFSET ( 5, 0, .BEHIND. ) ;
#127 = PERSON_AND_ORGANIZATION_ROLE ( 'design_owner' ) ;
#128 = PERSON_AND_ORGANIZATION ( #48, #96 ) ;
#129 = ORIENTED_EDGE ( 'NONE', *, *, #23, .F. ) ;
#130 = CC_DESIGN_APPROVAL ( #160, ( #101 ) ) ;
#131 = APPROVAL_DATE_TIME ( #54, #90 ) ;
#132 = CIRCLE ( 'NONE', #32, 12.50000000000000000 ) ;
#133 = LINE ( 'NONE', #43, #39 ) ;
#134 = CC_DESIGN_PERSON_AND_ORGANIZATION_ASSIGNMENT ( #128, #33, ( #154 ) ) ;
#135 = ADVANCED_FACE ( 'NONE', ( #171 ), #24, .T. ) ;
#136 = EDGE_CURVE ( 'NONE', #16, #25, #15, .T. ) ;
#137 = SHAPE_DEFINITION_REPRESENTATION ( #53, #58 ) ;
#138 = PLANE ( 'NONE',  #38 ) ;
#139 = CARTESIAN_POINT ( 'NONE',  ( 0.8000000000000000444, 0.0000000000000000000, 0.0000000000000000000 ) ) ;
#140 = DIRECTION ( 'NONE',  ( 1.000000000000000000, 0.0000000000000000000, 0.0000000000000000000 ) ) ;
#141 = ORIENTED_EDGE ( 'NONE', *, *, #136, .F. ) ;
#142 = DIRECTION ( 'NONE',  ( 0.0000000000000000000, 0.0000000000000000000, -1.000000000000000000 ) ) ;
#143 = CARTESIAN_POINT ( 'NONE',  ( -0.8000000000000000444, 0.0000000000000000000, 0.0000000000000000000 ) ) ;
#144 = PERSON_AND_ORGANIZATION_ROLE ( 'design_supplier' ) ;
#145 = APPROVAL_PERSON_ORGANIZATION ( #173, #41, #64 ) ;
#146 = ADVANCED_FACE ( 'NONE', ( #83 ), #35, .T. ) ;
#147 = ORIENTED_EDGE ( 'NONE', *, *, #117, .T. ) ;
#148 = CARTESIAN_POINT ( 'NONE',  ( 0.8000000000000000444, 1.530808498934191521E-15, -12.50000000000000000 ) ) ;
#149 = COORDINATED_UNIVERSAL_TIME_OFFSET ( 5, 0, .BEHIND. ) ;
#150 = DIRECTION ( 'NONE',  ( 1.000000000000000000, 0.0000000000000000000, 0.0000000000000000000 ) ) ;
#151 = CIRCLE ( 'NONE', #1, 12.50000000000000000 ) ;
#152 = APPLICATION_PROTOCOL_DEFINITION ( 'international standard', 'config_control_design', 1994, #168 ) ;
#153 = APPLICATION_PROTOCOL_DEFINITION ( 'international standard', 'config_control_design', 1994, #88 ) ;
#154 = PRODUCT_DEFINITION ( 'UNKNOWN', '', #67, #119 ) ;
#155 = DATE_TIME_ROLE ( 'classification_date' ) ;
#156 = DIRECTION ( 'NONE',  ( 1.000000000000000000, 0.0000000000000000000, 0.0000000000000000000 ) ) ;
#157 = ADVANCED_FACE ( 'NONE', ( #62 ), #113, .T. ) ;
#158 = LOCAL_TIME ( 11, 21, 22.00000000000000000, #126 ) ;
#159 = CC_DESIGN_DATE_AND_TIME_ASSIGNMENT ( #56, #155, ( #101 ) ) ;
#160 = APPROVAL ( #75, 'UNSPECIFIED' ) ;
#161 = APPROVAL_PERSON_ORGANIZATION ( #104, #90, #114 ) ;
#162 = ORIENTED_EDGE ( 'NONE', *, *, #8, .T. ) ;
#163 = DIRECTION ( 'NONE',  ( 1.000000000000000000, 0.0000000000000000000, 0.0000000000000000000 ) ) ;
#164 = PERSON_AND_ORGANIZATION ( #48, #96 ) ;
#165 = DIRECTION ( 'NONE',  ( 0.0000000000000000000, 0.0000000000000000000, 1.000000000000000000 ) ) ;
#166 =( LENGTH_UNIT ( ) NAMED_UNIT ( * ) SI_UNIT ( .MILLI., .METRE. ) );
#167 = UNCERTAINTY_MEASURE_WITH_UNIT (LENGTH_MEASURE( 1.000000000000000082E-05 ), #166, 'distance_accuracy_value', 'NONE');
#168 = APPLICATION_CONTEXT ( 'configuration controlled 3d designs of mechanical parts and assemblies' ) ;
#169 = AXIS2_PLACEMENT_3D ( 'NONE', #63, #30, #116 ) ;
#170 = DATE_AND_TIME ( #29, #68 ) ;
#171 = FACE_OUTER_BOUND ( 'NONE', #81, .T. ) ;
#172 = CC_DESIGN_PERSON_AND_ORGANIZATION_ASSIGNMENT ( #19, #127, ( #21 ) ) ;
#173 = PERSON_AND_ORGANIZATION ( #48, #96 ) ;
#174 = ORIENTED_EDGE ( 'NONE', *, *, #4, .T. ) ;
#175 = CARTESIAN_POINT ( 'NONE',  ( 0.8000000000000000444, 1.530808498934191521E-15, -12.50000000000000000 ) ) ;
ENDSEC;
END-ISO-10303-21;
