ISO-10303-21;
HEADER;
FILE_DESCRIPTION (( 'STEP AP203' ),
    '1' );
FILE_NAME ('Web Model 18465_18465.step',
    '2021-09-13T18:57:04',
    ( '' ),
    ( '' ),
    'SwSTEP 2.0',
    'SolidWorks 2018',
    '' );
FILE_SCHEMA (( 'CONFIG_CONTROL_DESIGN' ));
ENDSEC;

DATA;
#1 = CARTESIAN_POINT ( 'NONE',  ( 0.000000000000000000, 0.000000000000000000, 0.000000000000000000 ) ) ;
#2 = CALENDAR_DATE ( 2021, 13, 9 ) ;
#3 = CYLINDRICAL_SURFACE ( 'NONE', #52, 12.50000000000000000 ) ;
#4 = VERTEX_POINT ( 'NONE', #165 ) ;
#5 = DIRECTION ( 'NONE',  ( 1.000000000000000000, 0.000000000000000000, 0.000000000000000000 ) ) ;
#6 = DIRECTION ( 'NONE',  ( -1.000000000000000000, 0.000000000000000000, 0.000000000000000000 ) ) ;
#7 = PERSON_AND_ORGANIZATION_ROLE ( 'design_owner' ) ;
#8 = CC_DESIGN_DATE_AND_TIME_ASSIGNMENT ( #130, #112, ( #69 ) ) ;
#9 = PERSON ( 'UNSPECIFIED', 'UNSPECIFIED', 'UNSPECIFIED', ('UNSPECIFIED'), ('UNSPECIFIED'), ('UNSPECIFIED') ) ;
#10 = PERSON_AND_ORGANIZATION ( #9, #114 ) ;
#11 = VECTOR ( 'NONE', #65, 1000.000000000000000 ) ;
#12 = AXIS2_PLACEMENT_3D ( 'NONE', #168, #26, #18 ) ;
#13 = CALENDAR_DATE ( 2021, 13, 9 ) ;
#14 = EDGE_LOOP ( 'NONE', ( #150, #156 ) ) ;
#15 = CC_DESIGN_APPROVAL ( #72, ( #46 ) ) ;
#16 = LOCAL_TIME ( 14, 57, 4.000000000000000000, #137 ) ;
#17 = DIRECTION ( 'NONE',  ( 0.000000000000000000, 0.000000000000000000, 1.000000000000000000 ) ) ;
#18 = DIRECTION ( 'NONE',  ( 1.000000000000000000, 0.000000000000000000, 0.000000000000000000 ) ) ;
#19 = PERSON_AND_ORGANIZATION_ROLE ( 'creator' ) ;
#20 = ORIENTED_EDGE ( 'NONE', *, *, #138, .T. ) ;
#21 = CC_DESIGN_PERSON_AND_ORGANIZATION_ASSIGNMENT ( #51, #129, ( #46 ) ) ;
#22 = ORIENTED_EDGE ( 'NONE', *, *, #63, .F. ) ;
#23 = PERSON_AND_ORGANIZATION ( #9, #114 ) ;
#24 = EDGE_CURVE ( 'NONE', #104, #164, #145, .T. ) ;
#25 = DIRECTION ( 'NONE',  ( 0.000000000000000000, 0.000000000000000000, 1.000000000000000000 ) ) ;
#26 = DIRECTION ( 'NONE',  ( 0.000000000000000000, 0.000000000000000000, 1.000000000000000000 ) ) ;
#27 = AXIS2_PLACEMENT_3D ( 'NONE', #1, #25, #53 ) ;
#28 = DIRECTION ( 'NONE',  ( -0.000000000000000000, -0.000000000000000000, -1.000000000000000000 ) ) ;
#29 = DIRECTION ( 'NONE',  ( -1.000000000000000000, 0.000000000000000000, 0.000000000000000000 ) ) ;
#30 = LOCAL_TIME ( 14, 57, 4.000000000000000000, #75 ) ;
#31 = APPROVAL_ROLE ( '' ) ;
#32 = PERSON_AND_ORGANIZATION ( #9, #114 ) ;
#33 = PERSON_AND_ORGANIZATION_ROLE ( 'classification_officer' ) ;
#34 =( NAMED_UNIT ( * ) SI_UNIT ( $, .STERADIAN. ) SOLID_ANGLE_UNIT ( ) );
#35 = PRODUCT ( 'Web Model 18465_18465', 'Web Model 18465_18465', '', ( #58 ) ) ;
#36 = AXIS2_PLACEMENT_3D ( 'NONE', #128, #43, #5 ) ;
#37 = ADVANCED_FACE ( 'NONE', ( #115 ), #140, .T. ) ;
#38 = SHAPE_DEFINITION_REPRESENTATION ( #108, #123 ) ;
#39 = EDGE_CURVE ( 'NONE', #104, #4, #110, .T. ) ;
#40 = CARTESIAN_POINT ( 'NONE',  ( 0.000000000000000000, 0.000000000000000000, 0.5000000000000000000 ) ) ;
#41 = CARTESIAN_POINT ( 'NONE',  ( 12.50000000000000000, 1.530808498934191521E-15, 0.5000000000000000000 ) ) ;
#42 = DIRECTION ( 'NONE',  ( -0.000000000000000000, -0.000000000000000000, -1.000000000000000000 ) ) ;
#43 = DIRECTION ( 'NONE',  ( 0.000000000000000000, 0.000000000000000000, 1.000000000000000000 ) ) ;
#44 = AXIS2_PLACEMENT_3D ( 'NONE', #154, #152, #167 ) ;
#45 = PERSON_AND_ORGANIZATION_ROLE ( 'design_supplier' ) ;
#46 = PRODUCT_DEFINITION_FORMATION_WITH_SPECIFIED_SOURCE ( 'ANY', '', #35, .NOT_KNOWN. ) ;
#47 = FACE_OUTER_BOUND ( 'NONE', #93, .T. ) ;
#48 = LOCAL_TIME ( 14, 57, 4.000000000000000000, #85 ) ;
#49 = CIRCLE ( 'NONE', #132, 12.50000000000000000 ) ;
#50 = CC_DESIGN_PERSON_AND_ORGANIZATION_ASSIGNMENT ( #172, #33, ( #86 ) ) ;
#51 = PERSON_AND_ORGANIZATION ( #9, #114 ) ;
#52 = AXIS2_PLACEMENT_3D ( 'NONE', #67, #83, #6 ) ;
#53 = DIRECTION ( 'NONE',  ( 1.000000000000000000, 0.000000000000000000, -0.000000000000000000 ) ) ;
#54 = DIRECTION ( 'NONE',  ( 1.000000000000000000, 0.000000000000000000, 0.000000000000000000 ) ) ;
#55 = APPROVAL_DATE_TIME ( #139, #72 ) ;
#56 = AXIS2_PLACEMENT_3D ( 'NONE', #103, #133, #174 ) ;
#57 = DIRECTION ( 'NONE',  ( 1.000000000000000000, 0.000000000000000000, 0.000000000000000000 ) ) ;
#58 = MECHANICAL_CONTEXT ( 'NONE', #102, 'mechanical' ) ;
#59 = DATE_TIME_ROLE ( 'classification_date' ) ;
#60 = APPROVAL_PERSON_ORGANIZATION ( #73, #72, #31 ) ;
#61 = PERSON_AND_ORGANIZATION ( #9, #114 ) ;
#62 = DESIGN_CONTEXT ( 'detailed design', #134, 'design' ) ;
#63 = EDGE_CURVE ( 'NONE', #162, #4, #49, .T. ) ;
#64 = PLANE ( 'NONE',  #27 ) ;
#65 = DIRECTION ( 'NONE',  ( -0.000000000000000000, -0.000000000000000000, -1.000000000000000000 ) ) ;
#66 = EDGE_LOOP ( 'NONE', ( #151, #71, #20, #92 ) ) ;
#67 = CARTESIAN_POINT ( 'NONE',  ( 0.000000000000000000, 0.000000000000000000, 0.5000000000000000000 ) ) ;
#68 = APPROVAL_STATUS ( 'not_yet_approved' ) ;
#69 = PRODUCT_DEFINITION ( 'UNKNOWN', '', #46, #62 ) ;
#70 =( LENGTH_UNIT ( ) NAMED_UNIT ( * ) SI_UNIT ( .MILLI., .METRE. ) );
#71 = ORIENTED_EDGE ( 'NONE', *, *, #39, .T. ) ;
#72 = APPROVAL ( #155, 'UNSPECIFIED' ) ;
#73 = PERSON_AND_ORGANIZATION ( #9, #114 ) ;
#74 = CALENDAR_DATE ( 2021, 13, 9 ) ;
#75 = COORDINATED_UNIVERSAL_TIME_OFFSET ( 5, 0, .BEHIND. ) ;
#76 = FACE_OUTER_BOUND ( 'NONE', #159, .T. ) ;
#77 = CC_DESIGN_PERSON_AND_ORGANIZATION_ASSIGNMENT ( #122, #7, ( #35 ) ) ;
#78 = ADVANCED_FACE ( 'NONE', ( #47 ), #3, .T. ) ;
#79 = CIRCLE ( 'NONE', #94, 12.50000000000000000 ) ;
#80 = UNCERTAINTY_MEASURE_WITH_UNIT (LENGTH_MEASURE( 1.000000000000000082E-05 ), #70, 'distance_accuracy_value', 'NONE');
#81 = LOCAL_TIME ( 14, 57, 4.000000000000000000, #119 ) ;
#82 = CYLINDRICAL_SURFACE ( 'NONE', #149, 12.50000000000000000 ) ;
#83 = DIRECTION ( 'NONE',  ( -0.000000000000000000, -0.000000000000000000, -1.000000000000000000 ) ) ;
#84 = APPROVAL_ROLE ( '' ) ;
#85 = COORDINATED_UNIVERSAL_TIME_OFFSET ( 5, 0, .BEHIND. ) ;
#86 = SECURITY_CLASSIFICATION ( '', '', #147 ) ;
#87 = APPLICATION_PROTOCOL_DEFINITION ( 'international standard', 'config_control_design', 1994, #102 ) ;
#88 = DATE_AND_TIME ( #13, #81 ) ;
#89 = CC_DESIGN_PERSON_AND_ORGANIZATION_ASSIGNMENT ( #61, #19, ( #69 ) ) ;
#90 = ORIENTED_EDGE ( 'NONE', *, *, #138, .F. ) ;
#91 = CALENDAR_DATE ( 2021, 13, 9 ) ;
#92 = ORIENTED_EDGE ( 'NONE', *, *, #153, .F. ) ;
#93 = EDGE_LOOP ( 'NONE', ( #173, #97, #106, #169 ) ) ;
#94 = AXIS2_PLACEMENT_3D ( 'NONE', #40, #17, #57 ) ;
#95 = COORDINATED_UNIVERSAL_TIME_OFFSET ( 5, 0, .BEHIND. ) ;
#96 = DIRECTION ( 'NONE',  ( 0.000000000000000000, 0.000000000000000000, 1.000000000000000000 ) ) ;
#97 = ORIENTED_EDGE ( 'NONE', *, *, #157, .F. ) ;
#98 = CARTESIAN_POINT ( 'NONE',  ( -12.50000000000000000, 0.000000000000000000, 0.000000000000000000 ) ) ;
#99 = APPROVAL_ROLE ( '' ) ;
#100 = CALENDAR_DATE ( 2021, 13, 9 ) ;
#101 = CC_DESIGN_APPROVAL ( #160, ( #86 ) ) ;
#102 = APPLICATION_CONTEXT ( 'configuration controlled 3d designs of mechanical parts and assemblies' ) ;
#103 = CARTESIAN_POINT ( 'NONE',  ( 0.000000000000000000, 0.000000000000000000, 0.000000000000000000 ) ) ;
#104 = VERTEX_POINT ( 'NONE', #111 ) ;
#105 = MANIFOLD_SOLID_BREP ( 'Boss-Extrude1', #146 ) ;
#106 = ORIENTED_EDGE ( 'NONE', *, *, #153, .T. ) ;
#107 = FACE_OUTER_BOUND ( 'NONE', #66, .T. ) ;
#108 = PRODUCT_DEFINITION_SHAPE ( 'NONE', 'NONE',  #69 ) ;
#109 = CC_DESIGN_SECURITY_CLASSIFICATION ( #86, ( #46 ) ) ;
#110 = LINE ( 'NONE', #41, #11 ) ;
#111 = CARTESIAN_POINT ( 'NONE',  ( 12.50000000000000000, 1.530808498934191521E-15, 0.5000000000000000000 ) ) ;
#112 = DATE_TIME_ROLE ( 'creation_date' ) ;
#113 =( NAMED_UNIT ( * ) PLANE_ANGLE_UNIT ( ) SI_UNIT ( $, .RADIAN. ) );
#114 = ORGANIZATION ( 'UNSPECIFIED', 'UNSPECIFIED', '' ) ;
#115 = FACE_OUTER_BOUND ( 'NONE', #14, .T. ) ;
#116 = VECTOR ( 'NONE', #28, 1000.000000000000000 ) ;
#117 = PRODUCT_RELATED_PRODUCT_CATEGORY ( 'detail', '', ( #35 ) ) ;
#118 = CIRCLE ( 'NONE', #36, 12.50000000000000000 ) ;
#119 = COORDINATED_UNIVERSAL_TIME_OFFSET ( 5, 0, .BEHIND. ) ;
#120 = CC_DESIGN_APPROVAL ( #170, ( #69 ) ) ;
#121 = APPROVAL_DATE_TIME ( #127, #160 ) ;
#122 = PERSON_AND_ORGANIZATION ( #9, #114 ) ;
#123 = ADVANCED_BREP_SHAPE_REPRESENTATION ( 'Web Model 18465_18465', ( #105, #56 ), #125 ) ;
#124 = CARTESIAN_POINT ( 'NONE',  ( -12.50000000000000000, 0.000000000000000000, 0.5000000000000000000 ) ) ;
#125 =( GEOMETRIC_REPRESENTATION_CONTEXT ( 3 ) GLOBAL_UNCERTAINTY_ASSIGNED_CONTEXT ( ( #80 ) ) GLOBAL_UNIT_ASSIGNED_CONTEXT ( ( #70, #113, #34 ) ) REPRESENTATION_CONTEXT ( 'NONE', 'WORKASPACE' ) );
#126 = CARTESIAN_POINT ( 'NONE',  ( -12.50000000000000000, 0.000000000000000000, 0.5000000000000000000 ) ) ;
#127 = DATE_AND_TIME ( #74, #48 ) ;
#128 = CARTESIAN_POINT ( 'NONE',  ( 0.000000000000000000, 0.000000000000000000, 0.000000000000000000 ) ) ;
#129 = PERSON_AND_ORGANIZATION_ROLE ( 'creator' ) ;
#130 = DATE_AND_TIME ( #91, #30 ) ;
#131 = APPROVAL_STATUS ( 'not_yet_approved' ) ;
#132 = AXIS2_PLACEMENT_3D ( 'NONE', #141, #96, #54 ) ;
#133 = DIRECTION ( 'NONE',  ( 0.000000000000000000, 0.000000000000000000, 1.000000000000000000 ) ) ;
#134 = APPLICATION_CONTEXT ( 'configuration controlled 3d designs of mechanical parts and assemblies' ) ;
#135 = LOCAL_TIME ( 14, 57, 4.000000000000000000, #95 ) ;
#136 = CC_DESIGN_PERSON_AND_ORGANIZATION_ASSIGNMENT ( #23, #45, ( #46 ) ) ;
#137 = COORDINATED_UNIVERSAL_TIME_OFFSET ( 5, 0, .BEHIND. ) ;
#138 = EDGE_CURVE ( 'NONE', #4, #162, #118, .T. ) ;
#139 = DATE_AND_TIME ( #100, #135 ) ;
#140 = PLANE ( 'NONE',  #44 ) ;
#141 = CARTESIAN_POINT ( 'NONE',  ( 0.000000000000000000, 0.000000000000000000, 0.000000000000000000 ) ) ;
#142 = CC_DESIGN_DATE_AND_TIME_ASSIGNMENT ( #148, #59, ( #86 ) ) ;
#143 = APPLICATION_PROTOCOL_DEFINITION ( 'international standard', 'config_control_design', 1994, #134 ) ;
#144 = APPROVAL_DATE_TIME ( #88, #170 ) ;
#145 = CIRCLE ( 'NONE', #12, 12.50000000000000000 ) ;
#146 = CLOSED_SHELL ( 'NONE', ( #166, #78, #37, #175 ) ) ;
#147 = SECURITY_CLASSIFICATION_LEVEL ( 'unclassified' ) ;
#148 = DATE_AND_TIME ( #2, #16 ) ;
#149 = AXIS2_PLACEMENT_3D ( 'NONE', #171, #42, #29 ) ;
#150 = ORIENTED_EDGE ( 'NONE', *, *, #157, .T. ) ;
#151 = ORIENTED_EDGE ( 'NONE', *, *, #24, .F. ) ;
#152 = DIRECTION ( 'NONE',  ( 0.000000000000000000, 0.000000000000000000, 1.000000000000000000 ) ) ;
#153 = EDGE_CURVE ( 'NONE', #164, #162, #163, .T. ) ;
#154 = CARTESIAN_POINT ( 'NONE',  ( 0.000000000000000000, 0.000000000000000000, 0.5000000000000000000 ) ) ;
#155 = APPROVAL_STATUS ( 'not_yet_approved' ) ;
#156 = ORIENTED_EDGE ( 'NONE', *, *, #24, .T. ) ;
#157 = EDGE_CURVE ( 'NONE', #164, #104, #79, .T. ) ;
#158 = APPROVAL_PERSON_ORGANIZATION ( #10, #160, #84 ) ;
#159 = EDGE_LOOP ( 'NONE', ( #22, #90 ) ) ;
#160 = APPROVAL ( #68, 'UNSPECIFIED' ) ;
#161 = APPROVAL_PERSON_ORGANIZATION ( #32, #170, #99 ) ;
#162 = VERTEX_POINT ( 'NONE', #98 ) ;
#163 = LINE ( 'NONE', #126, #116 ) ;
#164 = VERTEX_POINT ( 'NONE', #124 ) ;
#165 = CARTESIAN_POINT ( 'NONE',  ( 12.50000000000000000, 1.530808498934191521E-15, 0.000000000000000000 ) ) ;
#166 = ADVANCED_FACE ( 'NONE', ( #107 ), #82, .T. ) ;
#167 = DIRECTION ( 'NONE',  ( 1.000000000000000000, 0.000000000000000000, -0.000000000000000000 ) ) ;
#168 = CARTESIAN_POINT ( 'NONE',  ( 0.000000000000000000, 0.000000000000000000, 0.5000000000000000000 ) ) ;
#169 = ORIENTED_EDGE ( 'NONE', *, *, #63, .T. ) ;
#170 = APPROVAL ( #131, 'UNSPECIFIED' ) ;
#171 = CARTESIAN_POINT ( 'NONE',  ( 0.000000000000000000, 0.000000000000000000, 0.5000000000000000000 ) ) ;
#172 = PERSON_AND_ORGANIZATION ( #9, #114 ) ;
#173 = ORIENTED_EDGE ( 'NONE', *, *, #39, .F. ) ;
#174 = DIRECTION ( 'NONE',  ( 1.000000000000000000, 0.000000000000000000, 0.000000000000000000 ) ) ;
#175 = ADVANCED_FACE ( 'NONE', ( #76 ), #64, .F. ) ;
ENDSEC;
END-ISO-10303-21;
