ISO-10303-21;
HEADER;
FILE_DESCRIPTION (( 'STEP AP203' ),
    '1' );
FILE_NAME ('Web Model 64087.STEP',
    '2017-01-31T19:03:44',
    ( '' ),
    ( '' ),
    'SwSTEP 2.0',
    'SolidWorks 2016',
    '' );
FILE_SCHEMA (( 'CONFIG_CONTROL_DESIGN' ));
ENDSEC;

DATA;
#1 = AXIS2_PLACEMENT_3D ( 'NONE', #188, #10, #210 ) ;
#2 = DIRECTION ( 'NONE',  ( 0.0000000000000000000, 0.0000000000000000000, -1.000000000000000000 ) ) ;
#3 = PERSON ( 'UNSPECIFIED', 'UNSPECIFIED', 'UNSPECIFIED', ('UNSPECIFIED'), ('UNSPECIFIED'), ('UNSPECIFIED') ) ;
#4 = EDGE_CURVE ( 'NONE', #5, #198, #146, .T. ) ;
#5 = VERTEX_POINT ( 'NONE', #19 ) ;
#6 = CARTESIAN_POINT ( 'NONE',  ( -10.00000000000000200, 10.00000000000000200, 2.000000000000000000 ) ) ;
#7 = UNCERTAINTY_MEASURE_WITH_UNIT (LENGTH_MEASURE( 1.000000000000000100E-005 ), #68, 'distance_accuracy_value', 'NONE');
#8 = DIRECTION ( 'NONE',  ( 0.0000000000000000000, -1.000000000000000000, 0.0000000000000000000 ) ) ;
#9 = APPROVAL ( #236, 'UNSPECIFIED' ) ;
#10 = DIRECTION ( 'NONE',  ( 0.0000000000000000000, 1.000000000000000000, 0.0000000000000000000 ) ) ;
#11 = CARTESIAN_POINT ( 'NONE',  ( -10.00000000000000200, -10.00000000000000200, 2.000000000000000000 ) ) ;
#12 = CARTESIAN_POINT ( 'NONE',  ( 10.00000000000000200, 10.00000000000000200, 0.0000000000000000000 ) ) ;
#13 = APPROVAL_PERSON_ORGANIZATION ( #230, #178, #67 ) ;
#14 = VECTOR ( 'NONE', #141, 1000.000000000000000 ) ;
#15 = DIRECTION ( 'NONE',  ( 0.0000000000000000000, 0.0000000000000000000, -1.000000000000000000 ) ) ;
#16 = DATE_AND_TIME ( #61, #235 ) ;
#17 = LINE ( 'NONE', #130, #114 ) ;
#18 = VECTOR ( 'NONE', #77, 1000.000000000000000 ) ;
#19 = CARTESIAN_POINT ( 'NONE',  ( 10.00000000000000200, 10.00000000000000200, 2.000000000000000000 ) ) ;
#20 = VERTEX_POINT ( 'NONE', #155 ) ;
#21 = CC_DESIGN_APPROVAL ( #9, ( #206 ) ) ;
#22 = CARTESIAN_POINT ( 'NONE',  ( -10.00000000000000200, 10.00000000000000200, 2.000000000000000000 ) ) ;
#23 = PERSON_AND_ORGANIZATION_ROLE ( 'design_supplier' ) ;
#24 = DATE_AND_TIME ( #186, #55 ) ;
#25 = DIRECTION ( 'NONE',  ( 0.0000000000000000000, -0.0000000000000000000, -1.000000000000000000 ) ) ;
#26 = PERSON_AND_ORGANIZATION ( #3, #41 ) ;
#27 = CARTESIAN_POINT ( 'NONE',  ( -10.00000000000000200, -10.00000000000000200, 2.000000000000000000 ) ) ;
#28 = CARTESIAN_POINT ( 'NONE',  ( -10.00000000000000200, 10.00000000000000200, 2.000000000000000000 ) ) ;
#29 = DIRECTION ( 'NONE',  ( 0.0000000000000000000, 0.0000000000000000000, -1.000000000000000000 ) ) ;
#30 = DATE_AND_TIME ( #105, #127 ) ;
#31 = PERSON_AND_ORGANIZATION_ROLE ( 'design_owner' ) ;
#32 = APPLICATION_PROTOCOL_DEFINITION ( 'international standard', 'config_control_design', 1994, #163 ) ;
#33 = EDGE_CURVE ( 'NONE', #69, #20, #145, .T. ) ;
#34 = PERSON_AND_ORGANIZATION ( #3, #41 ) ;
#35 = EDGE_LOOP ( 'NONE', ( #148, #142, #193, #207 ) ) ;
#36 = ORIENTED_EDGE ( 'NONE', *, *, #167, .T. ) ;
#37 = LINE ( 'NONE', #63, #225 ) ;
#38 = CARTESIAN_POINT ( 'NONE',  ( -10.00000000000000200, 10.00000000000000200, 2.000000000000000000 ) ) ;
#39 = EDGE_CURVE ( 'NONE', #5, #82, #56, .T. ) ;
#40 = ADVANCED_BREP_SHAPE_REPRESENTATION ( 'Web Model 64087', ( #86, #151 ), #57 ) ;
#41 = ORGANIZATION ( 'UNSPECIFIED', 'UNSPECIFIED', '' ) ;
#42 = CARTESIAN_POINT ( 'NONE',  ( -10.00000000000000200, -10.00000000000000200, 2.000000000000000000 ) ) ;
#43 = ORIENTED_EDGE ( 'NONE', *, *, #119, .F. ) ;
#44 = COORDINATED_UNIVERSAL_TIME_OFFSET ( 5, 0, .BEHIND. ) ;
#45 = PERSON_AND_ORGANIZATION ( #3, #41 ) ;
#46 = APPROVAL ( #237, 'UNSPECIFIED' ) ;
#47 = CC_DESIGN_APPROVAL ( #178, ( #128 ) ) ;
#48 = APPLICATION_CONTEXT ( 'configuration controlled 3d designs of mechanical parts and assemblies' ) ;
#49 = ADVANCED_FACE ( 'NONE', ( #169 ), #131, .T. ) ;
#50 = MECHANICAL_CONTEXT ( 'NONE', #163, 'mechanical' ) ;
#51 = DIRECTION ( 'NONE',  ( -0.0000000000000000000, -0.0000000000000000000, -1.000000000000000000 ) ) ;
#52 = AXIS2_PLACEMENT_3D ( 'NONE', #65, #15, #164 ) ;
#53 = CALENDAR_DATE ( 2017, 31, 1 ) ;
#54 = DIRECTION ( 'NONE',  ( 0.0000000000000000000, 1.000000000000000000, 0.0000000000000000000 ) ) ;
#55 = LOCAL_TIME ( 14, 3, 44.00000000000000000, #143 ) ;
#56 = LINE ( 'NONE', #22, #18 ) ;
#57 =( GEOMETRIC_REPRESENTATION_CONTEXT ( 3 ) GLOBAL_UNCERTAINTY_ASSIGNED_CONTEXT ( ( #7 ) ) GLOBAL_UNIT_ASSIGNED_CONTEXT ( ( #68, #232, #212 ) ) REPRESENTATION_CONTEXT ( 'NONE', 'WORKASPACE' ) );
#58 = FACE_OUTER_BOUND ( 'NONE', #233, .T. ) ;
#59 = CC_DESIGN_PERSON_AND_ORGANIZATION_ASSIGNMENT ( #26, #134, ( #190 ) ) ;
#60 = EDGE_LOOP ( 'NONE', ( #200, #117, #217, #124 ) ) ;
#61 = CALENDAR_DATE ( 2017, 31, 1 ) ;
#62 = VECTOR ( 'NONE', #89, 1000.000000000000000 ) ;
#63 = CARTESIAN_POINT ( 'NONE',  ( -10.00000000000000200, 10.00000000000000200, 0.0000000000000000000 ) ) ;
#64 = CC_DESIGN_PERSON_AND_ORGANIZATION_ASSIGNMENT ( #149, #213, ( #206 ) ) ;
#65 = CARTESIAN_POINT ( 'NONE',  ( -10.00000000000000200, 10.00000000000000200, 2.000000000000000000 ) ) ;
#66 = CARTESIAN_POINT ( 'NONE',  ( -10.00000000000000200, -10.00000000000000200, 2.000000000000000000 ) ) ;
#67 = APPROVAL_ROLE ( '' ) ;
#68 =( LENGTH_UNIT ( ) NAMED_UNIT ( * ) SI_UNIT ( .MILLI., .METRE. ) );
#69 = VERTEX_POINT ( 'NONE', #111 ) ;
#70 = DIRECTION ( 'NONE',  ( 0.0000000000000000000, 0.0000000000000000000, 1.000000000000000000 ) ) ;
#71 = COORDINATED_UNIVERSAL_TIME_OFFSET ( 5, 0, .BEHIND. ) ;
#72 = CARTESIAN_POINT ( 'NONE',  ( 10.00000000000000200, -10.00000000000000200, 2.000000000000000000 ) ) ;
#73 = VECTOR ( 'NONE', #135, 1000.000000000000000 ) ;
#74 = AXIS2_PLACEMENT_3D ( 'NONE', #72, #107, #92 ) ;
#75 = APPROVAL_PERSON_ORGANIZATION ( #104, #9, #126 ) ;
#76 = CC_DESIGN_APPROVAL ( #46, ( #190 ) ) ;
#77 = DIRECTION ( 'NONE',  ( -1.000000000000000000, -0.0000000000000000000, -0.0000000000000000000 ) ) ;
#78 = CC_DESIGN_PERSON_AND_ORGANIZATION_ASSIGNMENT ( #45, #122, ( #128 ) ) ;
#79 = ORIENTED_EDGE ( 'NONE', *, *, #91, .T. ) ;
#80 = EDGE_CURVE ( 'NONE', #170, #5, #196, .T. ) ;
#81 = VECTOR ( 'NONE', #160, 1000.000000000000000 ) ;
#82 = VERTEX_POINT ( 'NONE', #38 ) ;
#83 = CALENDAR_DATE ( 2017, 31, 1 ) ;
#84 = CC_DESIGN_PERSON_AND_ORGANIZATION_ASSIGNMENT ( #204, #23, ( #190 ) ) ;
#85 = DIRECTION ( 'NONE',  ( 1.000000000000000000, 0.0000000000000000000, 0.0000000000000000000 ) ) ;
#86 = MANIFOLD_SOLID_BREP ( 'Extrude1', #179 ) ;
#87 = APPLICATION_PROTOCOL_DEFINITION ( 'international standard', 'config_control_design', 1994, #48 ) ;
#88 = FACE_OUTER_BOUND ( 'NONE', #136, .T. ) ;
#89 = DIRECTION ( 'NONE',  ( 0.0000000000000000000, 1.000000000000000000, 0.0000000000000000000 ) ) ;
#90 = ORIENTED_EDGE ( 'NONE', *, *, #91, .F. ) ;
#91 = EDGE_CURVE ( 'NONE', #177, #69, #209, .T. ) ;
#92 = DIRECTION ( 'NONE',  ( 0.0000000000000000000, 0.0000000000000000000, 1.000000000000000000 ) ) ;
#93 = APPROVAL_DATE_TIME ( #24, #9 ) ;
#94 = ORIENTED_EDGE ( 'NONE', *, *, #201, .F. ) ;
#95 = EDGE_LOOP ( 'NONE', ( #43, #202, #112, #106 ) ) ;
#96 = APPROVAL_PERSON_ORGANIZATION ( #215, #46, #220 ) ;
#97 = CARTESIAN_POINT ( 'NONE',  ( 10.00000000000000200, -10.00000000000000200, 2.000000000000000000 ) ) ;
#98 = FACE_OUTER_BOUND ( 'NONE', #189, .T. ) ;
#99 = PLANE ( 'NONE',  #1 ) ;
#100 = CC_DESIGN_PERSON_AND_ORGANIZATION_ASSIGNMENT ( #34, #31, ( #185 ) ) ;
#101 = LOCAL_TIME ( 14, 3, 44.00000000000000000, #157 ) ;
#102 = ORIENTED_EDGE ( 'NONE', *, *, #167, .F. ) ;
#103 = APPROVAL_STATUS ( 'not_yet_approved' ) ;
#104 = PERSON_AND_ORGANIZATION ( #3, #41 ) ;
#105 = CALENDAR_DATE ( 2017, 31, 1 ) ;
#106 = ORIENTED_EDGE ( 'NONE', *, *, #33, .F. ) ;
#107 = DIRECTION ( 'NONE',  ( -1.000000000000000000, 0.0000000000000000000, 0.0000000000000000000 ) ) ;
#108 = DATE_TIME_ROLE ( 'classification_date' ) ;
#109 = LINE ( 'NONE', #27, #162 ) ;
#110 = ADVANCED_FACE ( 'NONE', ( #216 ), #158, .F. ) ;
#111 = CARTESIAN_POINT ( 'NONE',  ( -10.00000000000000200, -10.00000000000000200, 0.0000000000000000000 ) ) ;
#112 = ORIENTED_EDGE ( 'NONE', *, *, #203, .F. ) ;
#113 = VECTOR ( 'NONE', #194, 1000.000000000000000 ) ;
#114 = VECTOR ( 'NONE', #168, 1000.000000000000000 ) ;
#115 = ORIENTED_EDGE ( 'NONE', *, *, #137, .F. ) ;
#116 = VECTOR ( 'NONE', #54, 1000.000000000000000 ) ;
#117 = ORIENTED_EDGE ( 'NONE', *, *, #173, .F. ) ;
#118 = AXIS2_PLACEMENT_3D ( 'NONE', #6, #8, #25 ) ;
#119 = EDGE_CURVE ( 'NONE', #139, #69, #17, .T. ) ;
#120 = DIRECTION ( 'NONE',  ( -0.0000000000000000000, -1.000000000000000000, -0.0000000000000000000 ) ) ;
#121 = ORIENTED_EDGE ( 'NONE', *, *, #173, .T. ) ;
#122 = PERSON_AND_ORGANIZATION_ROLE ( 'creator' ) ;
#123 = DATE_TIME_ROLE ( 'creation_date' ) ;
#124 = ORIENTED_EDGE ( 'NONE', *, *, #4, .T. ) ;
#125 = DIRECTION ( 'NONE',  ( 1.000000000000000000, 0.0000000000000000000, 0.0000000000000000000 ) ) ;
#126 = APPROVAL_ROLE ( '' ) ;
#127 = LOCAL_TIME ( 14, 3, 44.00000000000000000, #71 ) ;
#128 = PRODUCT_DEFINITION ( 'UNKNOWN', '', #190, #226 ) ;
#129 = ORIENTED_EDGE ( 'NONE', *, *, #137, .T. ) ;
#130 = CARTESIAN_POINT ( 'NONE',  ( -10.00000000000000200, -10.00000000000000200, 0.0000000000000000000 ) ) ;
#131 = PLANE ( 'NONE',  #223 ) ;
#132 = PRODUCT_DEFINITION_SHAPE ( 'NONE', 'NONE',  #128 ) ;
#133 = CARTESIAN_POINT ( 'NONE',  ( -10.00000000000000200, 10.00000000000000200, 0.0000000000000000000 ) ) ;
#134 = PERSON_AND_ORGANIZATION_ROLE ( 'creator' ) ;
#135 = DIRECTION ( 'NONE',  ( -0.0000000000000000000, -0.0000000000000000000, -1.000000000000000000 ) ) ;
#136 = EDGE_LOOP ( 'NONE', ( #36, #129, #154, #222 ) ) ;
#137 = EDGE_CURVE ( 'NONE', #177, #170, #183, .T. ) ;
#138 = SECURITY_CLASSIFICATION_LEVEL ( 'unclassified' ) ;
#139 = VERTEX_POINT ( 'NONE', #211 ) ;
#140 = LINE ( 'NONE', #161, #62 ) ;
#141 = DIRECTION ( 'NONE',  ( 1.000000000000000000, 0.0000000000000000000, 0.0000000000000000000 ) ) ;
#142 = ORIENTED_EDGE ( 'NONE', *, *, #4, .F. ) ;
#143 = COORDINATED_UNIVERSAL_TIME_OFFSET ( 5, 0, .BEHIND. ) ;
#144 = AXIS2_PLACEMENT_3D ( 'NONE', #42, #85, #29 ) ;
#145 = LINE ( 'NONE', #208, #231 ) ;
#146 = LINE ( 'NONE', #182, #187 ) ;
#147 = CC_DESIGN_DATE_AND_TIME_ASSIGNMENT ( #30, #123, ( #128 ) ) ;
#148 = ORIENTED_EDGE ( 'NONE', *, *, #203, .T. ) ;
#149 = PERSON_AND_ORGANIZATION ( #3, #41 ) ;
#150 = APPROVAL_DATE_TIME ( #218, #178 ) ;
#151 = AXIS2_PLACEMENT_3D ( 'NONE', #234, #70, #125 ) ;
#152 = ADVANCED_FACE ( 'NONE', ( #98 ), #99, .F. ) ;
#153 = EDGE_CURVE ( 'NONE', #198, #139, #37, .T. ) ;
#154 = ORIENTED_EDGE ( 'NONE', *, *, #80, .T. ) ;
#155 = CARTESIAN_POINT ( 'NONE',  ( 10.00000000000000200, -10.00000000000000200, 0.0000000000000000000 ) ) ;
#156 = CC_DESIGN_SECURITY_CLASSIFICATION ( #206, ( #190 ) ) ;
#157 = COORDINATED_UNIVERSAL_TIME_OFFSET ( 5, 0, .BEHIND. ) ;
#158 = PLANE ( 'NONE',  #118 ) ;
#159 = ORIENTED_EDGE ( 'NONE', *, *, #33, .T. ) ;
#160 = DIRECTION ( 'NONE',  ( -0.0000000000000000000, -0.0000000000000000000, -1.000000000000000000 ) ) ;
#161 = CARTESIAN_POINT ( 'NONE',  ( 10.00000000000000200, -10.00000000000000200, 0.0000000000000000000 ) ) ;
#162 = VECTOR ( 'NONE', #120, 1000.000000000000000 ) ;
#163 = APPLICATION_CONTEXT ( 'configuration controlled 3d designs of mechanical parts and assemblies' ) ;
#164 = DIRECTION ( 'NONE',  ( -1.000000000000000000, 0.0000000000000000000, -0.0000000000000000000 ) ) ;
#165 = DATE_AND_TIME ( #53, #101 ) ;
#166 = LINE ( 'NONE', #181, #113 ) ;
#167 = EDGE_CURVE ( 'NONE', #82, #177, #109, .T. ) ;
#168 = DIRECTION ( 'NONE',  ( -0.0000000000000000000, -1.000000000000000000, -0.0000000000000000000 ) ) ;
#169 = FACE_OUTER_BOUND ( 'NONE', #95, .T. ) ;
#170 = VERTEX_POINT ( 'NONE', #97 ) ;
#171 = FACE_OUTER_BOUND ( 'NONE', #35, .T. ) ;
#172 = ORIENTED_EDGE ( 'NONE', *, *, #119, .T. ) ;
#173 = EDGE_CURVE ( 'NONE', #82, #139, #180, .T. ) ;
#174 = PLANE ( 'NONE',  #52 ) ;
#175 = PRODUCT_RELATED_PRODUCT_CATEGORY ( 'detail', '', ( #185 ) ) ;
#176 = APPROVAL_DATE_TIME ( #165, #46 ) ;
#177 = VERTEX_POINT ( 'NONE', #11 ) ;
#178 = APPROVAL ( #103, 'UNSPECIFIED' ) ;
#179 = CLOSED_SHELL ( 'NONE', ( #195, #152, #214, #110, #197, #49 ) ) ;
#180 = LINE ( 'NONE', #28, #81 ) ;
#181 = CARTESIAN_POINT ( 'NONE',  ( 10.00000000000000200, -10.00000000000000200, 2.000000000000000000 ) ) ;
#182 = CARTESIAN_POINT ( 'NONE',  ( 10.00000000000000200, 10.00000000000000200, 2.000000000000000000 ) ) ;
#183 = LINE ( 'NONE', #66, #14 ) ;
#184 = CARTESIAN_POINT ( 'NONE',  ( -10.00000000000000200, -10.00000000000000200, 2.000000000000000000 ) ) ;
#185 = PRODUCT ( 'Web Model 64087', 'Web Model 64087', '', ( #50 ) ) ;
#186 = CALENDAR_DATE ( 2017, 31, 1 ) ;
#187 = VECTOR ( 'NONE', #51, 1000.000000000000000 ) ;
#188 = CARTESIAN_POINT ( 'NONE',  ( -10.00000000000000200, -10.00000000000000200, 2.000000000000000000 ) ) ;
#189 = EDGE_LOOP ( 'NONE', ( #159, #94, #115, #79 ) ) ;
#190 = PRODUCT_DEFINITION_FORMATION_WITH_SPECIFIED_SOURCE ( 'ANY', '', #185, .NOT_KNOWN. ) ;
#191 = PLANE ( 'NONE',  #144 ) ;
#192 = COORDINATED_UNIVERSAL_TIME_OFFSET ( 5, 0, .BEHIND. ) ;
#193 = ORIENTED_EDGE ( 'NONE', *, *, #80, .F. ) ;
#194 = DIRECTION ( 'NONE',  ( -0.0000000000000000000, -0.0000000000000000000, -1.000000000000000000 ) ) ;
#195 = ADVANCED_FACE ( 'NONE', ( #58 ), #191, .F. ) ;
#196 = LINE ( 'NONE', #205, #116 ) ;
#197 = ADVANCED_FACE ( 'NONE', ( #88 ), #174, .F. ) ;
#198 = VERTEX_POINT ( 'NONE', #12 ) ;
#199 = DIRECTION ( 'NONE',  ( -1.000000000000000000, 0.0000000000000000000, -0.0000000000000000000 ) ) ;
#200 = ORIENTED_EDGE ( 'NONE', *, *, #153, .T. ) ;
#201 = EDGE_CURVE ( 'NONE', #170, #20, #166, .T. ) ;
#202 = ORIENTED_EDGE ( 'NONE', *, *, #153, .F. ) ;
#203 = EDGE_CURVE ( 'NONE', #20, #198, #140, .T. ) ;
#204 = PERSON_AND_ORGANIZATION ( #3, #41 ) ;
#205 = CARTESIAN_POINT ( 'NONE',  ( 10.00000000000000200, -10.00000000000000200, 2.000000000000000000 ) ) ;
#206 = SECURITY_CLASSIFICATION ( '', '', #138 ) ;
#207 = ORIENTED_EDGE ( 'NONE', *, *, #201, .T. ) ;
#208 = CARTESIAN_POINT ( 'NONE',  ( -10.00000000000000200, -10.00000000000000200, 0.0000000000000000000 ) ) ;
#209 = LINE ( 'NONE', #184, #73 ) ;
#210 = DIRECTION ( 'NONE',  ( 0.0000000000000000000, -0.0000000000000000000, 1.000000000000000000 ) ) ;
#211 = CARTESIAN_POINT ( 'NONE',  ( -10.00000000000000200, 10.00000000000000200, 0.0000000000000000000 ) ) ;
#212 =( NAMED_UNIT ( * ) SI_UNIT ( $, .STERADIAN. ) SOLID_ANGLE_UNIT ( ) );
#213 = PERSON_AND_ORGANIZATION_ROLE ( 'classification_officer' ) ;
#214 = ADVANCED_FACE ( 'NONE', ( #171 ), #229, .F. ) ;
#215 = PERSON_AND_ORGANIZATION ( #3, #41 ) ;
#216 = FACE_OUTER_BOUND ( 'NONE', #60, .T. ) ;
#217 = ORIENTED_EDGE ( 'NONE', *, *, #39, .F. ) ;
#218 = DATE_AND_TIME ( #83, #221 ) ;
#219 = DIRECTION ( 'NONE',  ( 1.000000000000000000, 0.0000000000000000000, 0.0000000000000000000 ) ) ;
#220 = APPROVAL_ROLE ( '' ) ;
#221 = LOCAL_TIME ( 14, 3, 44.00000000000000000, #192 ) ;
#222 = ORIENTED_EDGE ( 'NONE', *, *, #39, .T. ) ;
#223 = AXIS2_PLACEMENT_3D ( 'NONE', #133, #2, #199 ) ;
#224 = SHAPE_DEFINITION_REPRESENTATION ( #132, #40 ) ;
#225 = VECTOR ( 'NONE', #228, 1000.000000000000000 ) ;
#226 = DESIGN_CONTEXT ( 'detailed design', #48, 'design' ) ;
#227 = CC_DESIGN_DATE_AND_TIME_ASSIGNMENT ( #16, #108, ( #206 ) ) ;
#228 = DIRECTION ( 'NONE',  ( -1.000000000000000000, -0.0000000000000000000, -0.0000000000000000000 ) ) ;
#229 = PLANE ( 'NONE',  #74 ) ;
#230 = PERSON_AND_ORGANIZATION ( #3, #41 ) ;
#231 = VECTOR ( 'NONE', #219, 1000.000000000000000 ) ;
#232 =( NAMED_UNIT ( * ) PLANE_ANGLE_UNIT ( ) SI_UNIT ( $, .RADIAN. ) );
#233 = EDGE_LOOP ( 'NONE', ( #172, #90, #102, #121 ) ) ;
#234 = CARTESIAN_POINT ( 'NONE',  ( 0.0000000000000000000, 0.0000000000000000000, 0.0000000000000000000 ) ) ;
#235 = LOCAL_TIME ( 14, 3, 44.00000000000000000, #44 ) ;
#236 = APPROVAL_STATUS ( 'not_yet_approved' ) ;
#237 = APPROVAL_STATUS ( 'not_yet_approved' ) ;
ENDSEC;
END-ISO-10303-21;
