ISO-10303-21;
HEADER;
FILE_DESCRIPTION (( 'STEP AP203' ),
    '1' );
FILE_NAME ('Web Model 43893_12193.step',
    '2019-01-28T19:08:08',
    ( '' ),
    ( '' ),
    'SwSTEP 2.0',
    'SolidWorks 2016',
    '' );
FILE_SCHEMA (( 'CONFIG_CONTROL_DESIGN' ));
ENDSEC;

DATA;
#1 = PRODUCT_DEFINITION ( 'UNKNOWN', '', #25, #86 ) ;
#2 = APPLICATION_PROTOCOL_DEFINITION ( 'international standard', 'config_control_design', 1994, #17 ) ;
#3 = CYLINDRICAL_SURFACE ( 'NONE', #141, 25.00000000000000000 ) ;
#4 = AXIS2_PLACEMENT_3D ( 'NONE', #153, #119, #132 ) ;
#5 = EDGE_LOOP ( 'NONE', ( #75, #149, #142, #61 ) ) ;
#6 = CC_DESIGN_APPROVAL ( #9, ( #1 ) ) ;
#7 = EDGE_CURVE ( 'NONE', #99, #51, #78, .T. ) ;
#8 = ORIENTED_EDGE ( 'NONE', *, *, #55, .T. ) ;
#9 = APPROVAL ( #93, 'UNSPECIFIED' ) ;
#10 = VERTEX_POINT ( 'NONE', #70 ) ;
#11 = CIRCLE ( 'NONE', #43, 25.00000000000000000 ) ;
#12 = CC_DESIGN_PERSON_AND_ORGANIZATION_ASSIGNMENT ( #152, #15, ( #1 ) ) ;
#13 = MECHANICAL_CONTEXT ( 'NONE', #17, 'mechanical' ) ;
#14 = PERSON_AND_ORGANIZATION_ROLE ( 'design_supplier' ) ;
#15 = PERSON_AND_ORGANIZATION_ROLE ( 'creator' ) ;
#16 = PERSON_AND_ORGANIZATION ( #97, #50 ) ;
#17 = APPLICATION_CONTEXT ( 'configuration controlled 3d designs of mechanical parts and assemblies' ) ;
#18 = DIRECTION ( 'NONE',  ( 1.000000000000000000, 0.0000000000000000000, 0.0000000000000000000 ) ) ;
#19 = PRODUCT_DEFINITION_SHAPE ( 'NONE', 'NONE',  #1 ) ;
#20 = CC_DESIGN_PERSON_AND_ORGANIZATION_ASSIGNMENT ( #16, #14, ( #25 ) ) ;
#21 = MANIFOLD_SOLID_BREP ( 'Boss-Extrude1', #80 ) ;
#22 = LOCAL_TIME ( 14, 8, 8.000000000000000000, #90 ) ;
#23 = CC_DESIGN_PERSON_AND_ORGANIZATION_ASSIGNMENT ( #124, #111, ( #87 ) ) ;
#24 = CIRCLE ( 'NONE', #100, 25.00000000000000000 ) ;
#25 = PRODUCT_DEFINITION_FORMATION_WITH_SPECIFIED_SOURCE ( 'ANY', '', #87, .NOT_KNOWN. ) ;
#26 = ADVANCED_FACE ( 'NONE', ( #69 ), #165, .T. ) ;
#27 = PERSON_AND_ORGANIZATION ( #97, #50 ) ;
#28 = CARTESIAN_POINT ( 'NONE',  ( 0.0000000000000000000, 0.0000000000000000000, 1.649999999999999900 ) ) ;
#29 = CARTESIAN_POINT ( 'NONE',  ( 0.0000000000000000000, 0.0000000000000000000, -1.649999999999999900 ) ) ;
#30 = PERSON_AND_ORGANIZATION ( #97, #50 ) ;
#31 = VECTOR ( 'NONE', #105, 1000.000000000000000 ) ;
#32 = PERSON_AND_ORGANIZATION_ROLE ( 'classification_officer' ) ;
#33 = APPROVAL_ROLE ( '' ) ;
#34 = CALENDAR_DATE ( 2019, 28, 1 ) ;
#35 = PERSON_AND_ORGANIZATION_ROLE ( 'creator' ) ;
#36 = APPLICATION_CONTEXT ( 'configuration controlled 3d designs of mechanical parts and assemblies' ) ;
#37 = CC_DESIGN_PERSON_AND_ORGANIZATION_ASSIGNMENT ( #44, #35, ( #25 ) ) ;
#38 = DIRECTION ( 'NONE',  ( 0.0000000000000000000, 0.0000000000000000000, 1.000000000000000000 ) ) ;
#39 = EDGE_CURVE ( 'NONE', #10, #51, #64, .T. ) ;
#40 = CALENDAR_DATE ( 2019, 28, 1 ) ;
#41 = ORIENTED_EDGE ( 'NONE', *, *, #169, .F. ) ;
#42 = ADVANCED_FACE ( 'NONE', ( #77 ), #154, .F. ) ;
#43 = AXIS2_PLACEMENT_3D ( 'NONE', #94, #82, #72 ) ;
#44 = PERSON_AND_ORGANIZATION ( #97, #50 ) ;
#45 = PLANE ( 'NONE',  #160 ) ;
#46 = LINE ( 'NONE', #58, #150 ) ;
#47 = CARTESIAN_POINT ( 'NONE',  ( -25.00000000000000000, 0.0000000000000000000, 1.649999999999999900 ) ) ;
#48 = CC_DESIGN_DATE_AND_TIME_ASSIGNMENT ( #60, #158, ( #148 ) ) ;
#49 = DIRECTION ( 'NONE',  ( 1.000000000000000000, 0.0000000000000000000, 0.0000000000000000000 ) ) ;
#50 = ORGANIZATION ( 'UNSPECIFIED', 'UNSPECIFIED', '' ) ;
#51 = VERTEX_POINT ( 'NONE', #140 ) ;
#52 = APPROVAL ( #157, 'UNSPECIFIED' ) ;
#53 = ADVANCED_BREP_SHAPE_REPRESENTATION ( 'Web Model 43893_12193', ( #21, #151 ), #115 ) ;
#54 = ORIENTED_EDGE ( 'NONE', *, *, #39, .F. ) ;
#55 = EDGE_CURVE ( 'NONE', #117, #10, #46, .T. ) ;
#56 = DATE_AND_TIME ( #66, #96 ) ;
#57 = DIRECTION ( 'NONE',  ( 1.000000000000000000, 0.0000000000000000000, -0.0000000000000000000 ) ) ;
#58 = CARTESIAN_POINT ( 'NONE',  ( -25.00000000000000000, 0.0000000000000000000, 1.649999999999999900 ) ) ;
#59 = DIRECTION ( 'NONE',  ( 1.000000000000000000, 0.0000000000000000000, 0.0000000000000000000 ) ) ;
#60 = DATE_AND_TIME ( #40, #136 ) ;
#61 = ORIENTED_EDGE ( 'NONE', *, *, #55, .F. ) ;
#62 = APPLICATION_PROTOCOL_DEFINITION ( 'international standard', 'config_control_design', 1994, #36 ) ;
#63 = COORDINATED_UNIVERSAL_TIME_OFFSET ( 5, 0, .BEHIND. ) ;
#64 = CIRCLE ( 'NONE', #137, 25.00000000000000000 ) ;
#65 = CC_DESIGN_SECURITY_CLASSIFICATION ( #148, ( #25 ) ) ;
#66 = CALENDAR_DATE ( 2019, 28, 1 ) ;
#67 = LOCAL_TIME ( 14, 8, 8.000000000000000000, #116 ) ;
#68 = DIRECTION ( 'NONE',  ( 0.0000000000000000000, 0.0000000000000000000, 1.000000000000000000 ) ) ;
#69 = FACE_OUTER_BOUND ( 'NONE', #88, .T. ) ;
#70 = CARTESIAN_POINT ( 'NONE',  ( -25.00000000000000000, 0.0000000000000000000, -1.649999999999999900 ) ) ;
#71 = CARTESIAN_POINT ( 'NONE',  ( 0.0000000000000000000, 0.0000000000000000000, -1.649999999999999900 ) ) ;
#72 = DIRECTION ( 'NONE',  ( 1.000000000000000000, 0.0000000000000000000, 0.0000000000000000000 ) ) ;
#73 = CALENDAR_DATE ( 2019, 28, 1 ) ;
#74 = DIRECTION ( 'NONE',  ( 0.0000000000000000000, 0.0000000000000000000, 1.000000000000000000 ) ) ;
#75 = ORIENTED_EDGE ( 'NONE', *, *, #113, .F. ) ;
#76 = APPROVAL_DATE_TIME ( #128, #9 ) ;
#77 = FACE_OUTER_BOUND ( 'NONE', #125, .T. ) ;
#78 = LINE ( 'NONE', #106, #31 ) ;
#79 = ADVANCED_FACE ( 'NONE', ( #81 ), #3, .T. ) ;
#80 = CLOSED_SHELL ( 'NONE', ( #79, #26, #129, #42 ) ) ;
#81 = FACE_OUTER_BOUND ( 'NONE', #5, .T. ) ;
#82 = DIRECTION ( 'NONE',  ( 0.0000000000000000000, 0.0000000000000000000, 1.000000000000000000 ) ) ;
#83 = DIRECTION ( 'NONE',  ( 0.0000000000000000000, 0.0000000000000000000, 1.000000000000000000 ) ) ;
#84 = ORIENTED_EDGE ( 'NONE', *, *, #7, .F. ) ;
#85 = CC_DESIGN_APPROVAL ( #52, ( #25 ) ) ;
#86 = DESIGN_CONTEXT ( 'detailed design', #36, 'design' ) ;
#87 = PRODUCT ( 'Web Model 43893_12193', 'Web Model 43893_12193', '', ( #13 ) ) ;
#88 = EDGE_LOOP ( 'NONE', ( #84, #41, #8, #118 ) ) ;
#89 = DIRECTION ( 'NONE',  ( 0.0000000000000000000, 0.0000000000000000000, 1.000000000000000000 ) ) ;
#90 = COORDINATED_UNIVERSAL_TIME_OFFSET ( 5, 0, .BEHIND. ) ;
#91 = APPROVAL_STATUS ( 'not_yet_approved' ) ;
#92 = PERSON_AND_ORGANIZATION ( #97, #50 ) ;
#93 = APPROVAL_STATUS ( 'not_yet_approved' ) ;
#94 = CARTESIAN_POINT ( 'NONE',  ( 0.0000000000000000000, 0.0000000000000000000, 1.649999999999999900 ) ) ;
#95 = SECURITY_CLASSIFICATION_LEVEL ( 'unclassified' ) ;
#96 = LOCAL_TIME ( 14, 8, 8.000000000000000000, #63 ) ;
#97 = PERSON ( 'UNSPECIFIED', 'UNSPECIFIED', 'UNSPECIFIED', ('UNSPECIFIED'), ('UNSPECIFIED'), ('UNSPECIFIED') ) ;
#98 = DATE_AND_TIME ( #73, #22 ) ;
#99 = VERTEX_POINT ( 'NONE', #121 ) ;
#100 = AXIS2_PLACEMENT_3D ( 'NONE', #71, #38, #59 ) ;
#101 = APPROVAL_PERSON_ORGANIZATION ( #92, #166, #143 ) ;
#102 = DIRECTION ( 'NONE',  ( -0.0000000000000000000, -0.0000000000000000000, -1.000000000000000000 ) ) ;
#103 = CARTESIAN_POINT ( 'NONE',  ( 0.0000000000000000000, 0.0000000000000000000, -1.649999999999999900 ) ) ;
#104 = APPROVAL_PERSON_ORGANIZATION ( #155, #9, #159 ) ;
#105 = DIRECTION ( 'NONE',  ( -0.0000000000000000000, -0.0000000000000000000, -1.000000000000000000 ) ) ;
#106 = CARTESIAN_POINT ( 'NONE',  ( 25.00000000000000000, 3.061616997868383000E-015, 1.649999999999999900 ) ) ;
#107 = CARTESIAN_POINT ( 'NONE',  ( 0.0000000000000000000, 0.0000000000000000000, 1.649999999999999900 ) ) ;
#108 = SHAPE_DEFINITION_REPRESENTATION ( #19, #53 ) ;
#109 =( NAMED_UNIT ( * ) PLANE_ANGLE_UNIT ( ) SI_UNIT ( $, .RADIAN. ) );
#110 = DATE_TIME_ROLE ( 'creation_date' ) ;
#111 = PERSON_AND_ORGANIZATION_ROLE ( 'design_owner' ) ;
#112 = ORIENTED_EDGE ( 'NONE', *, *, #138, .F. ) ;
#113 = EDGE_CURVE ( 'NONE', #99, #117, #168, .T. ) ;
#114 = FACE_OUTER_BOUND ( 'NONE', #147, .T. ) ;
#115 =( GEOMETRIC_REPRESENTATION_CONTEXT ( 3 ) GLOBAL_UNCERTAINTY_ASSIGNED_CONTEXT ( ( #126 ) ) GLOBAL_UNIT_ASSIGNED_CONTEXT ( ( #171, #109, #173 ) ) REPRESENTATION_CONTEXT ( 'NONE', 'WORKASPACE' ) );
#116 = COORDINATED_UNIVERSAL_TIME_OFFSET ( 5, 0, .BEHIND. ) ;
#117 = VERTEX_POINT ( 'NONE', #47 ) ;
#118 = ORIENTED_EDGE ( 'NONE', *, *, #39, .T. ) ;
#119 = DIRECTION ( 'NONE',  ( -0.0000000000000000000, -0.0000000000000000000, -1.000000000000000000 ) ) ;
#120 = DIRECTION ( 'NONE',  ( -0.0000000000000000000, -0.0000000000000000000, -1.000000000000000000 ) ) ;
#121 = CARTESIAN_POINT ( 'NONE',  ( 25.00000000000000000, 3.061616997868383000E-015, 1.649999999999999900 ) ) ;
#122 = CC_DESIGN_PERSON_AND_ORGANIZATION_ASSIGNMENT ( #30, #32, ( #148 ) ) ;
#123 = CALENDAR_DATE ( 2019, 28, 1 ) ;
#124 = PERSON_AND_ORGANIZATION ( #97, #50 ) ;
#125 = EDGE_LOOP ( 'NONE', ( #54, #112 ) ) ;
#126 = UNCERTAINTY_MEASURE_WITH_UNIT (LENGTH_MEASURE( 1.000000000000000100E-005 ), #171, 'distance_accuracy_value', 'NONE');
#127 = CC_DESIGN_DATE_AND_TIME_ASSIGNMENT ( #56, #110, ( #1 ) ) ;
#128 = DATE_AND_TIME ( #123, #130 ) ;
#129 = ADVANCED_FACE ( 'NONE', ( #114 ), #45, .T. ) ;
#130 = LOCAL_TIME ( 14, 8, 8.000000000000000000, #161 ) ;
#131 = CC_DESIGN_APPROVAL ( #166, ( #148 ) ) ;
#132 = DIRECTION ( 'NONE',  ( -1.000000000000000000, 0.0000000000000000000, 0.0000000000000000000 ) ) ;
#133 = DIRECTION ( 'NONE',  ( 1.000000000000000000, 0.0000000000000000000, 0.0000000000000000000 ) ) ;
#134 = DIRECTION ( 'NONE',  ( 1.000000000000000000, 0.0000000000000000000, -0.0000000000000000000 ) ) ;
#135 = APPROVAL_DATE_TIME ( #139, #52 ) ;
#136 = LOCAL_TIME ( 14, 8, 8.000000000000000000, #172 ) ;
#137 = AXIS2_PLACEMENT_3D ( 'NONE', #29, #68, #133 ) ;
#138 = EDGE_CURVE ( 'NONE', #51, #10, #24, .T. ) ;
#139 = DATE_AND_TIME ( #34, #67 ) ;
#140 = CARTESIAN_POINT ( 'NONE',  ( 25.00000000000000000, 3.061616997868383000E-015, -1.649999999999999900 ) ) ;
#141 = AXIS2_PLACEMENT_3D ( 'NONE', #28, #120, #170 ) ;
#142 = ORIENTED_EDGE ( 'NONE', *, *, #138, .T. ) ;
#143 = APPROVAL_ROLE ( '' ) ;
#144 = CARTESIAN_POINT ( 'NONE',  ( 0.0000000000000000000, 0.0000000000000000000, 1.649999999999999900 ) ) ;
#145 = PRODUCT_RELATED_PRODUCT_CATEGORY ( 'detail', '', ( #87 ) ) ;
#146 = DIRECTION ( 'NONE',  ( 0.0000000000000000000, 0.0000000000000000000, 1.000000000000000000 ) ) ;
#147 = EDGE_LOOP ( 'NONE', ( #156, #162 ) ) ;
#148 = SECURITY_CLASSIFICATION ( '', '', #95 ) ;
#149 = ORIENTED_EDGE ( 'NONE', *, *, #7, .T. ) ;
#150 = VECTOR ( 'NONE', #102, 1000.000000000000000 ) ;
#151 = AXIS2_PLACEMENT_3D ( 'NONE', #175, #146, #18 ) ;
#152 = PERSON_AND_ORGANIZATION ( #97, #50 ) ;
#153 = CARTESIAN_POINT ( 'NONE',  ( 0.0000000000000000000, 0.0000000000000000000, 1.649999999999999900 ) ) ;
#154 = PLANE ( 'NONE',  #174 ) ;
#155 = PERSON_AND_ORGANIZATION ( #97, #50 ) ;
#156 = ORIENTED_EDGE ( 'NONE', *, *, #169, .T. ) ;
#157 = APPROVAL_STATUS ( 'not_yet_approved' ) ;
#158 = DATE_TIME_ROLE ( 'classification_date' ) ;
#159 = APPROVAL_ROLE ( '' ) ;
#160 = AXIS2_PLACEMENT_3D ( 'NONE', #107, #83, #134 ) ;
#161 = COORDINATED_UNIVERSAL_TIME_OFFSET ( 5, 0, .BEHIND. ) ;
#162 = ORIENTED_EDGE ( 'NONE', *, *, #113, .T. ) ;
#163 = AXIS2_PLACEMENT_3D ( 'NONE', #144, #74, #49 ) ;
#164 = APPROVAL_PERSON_ORGANIZATION ( #27, #52, #33 ) ;
#165 = CYLINDRICAL_SURFACE ( 'NONE', #4, 25.00000000000000000 ) ;
#166 = APPROVAL ( #91, 'UNSPECIFIED' ) ;
#167 = APPROVAL_DATE_TIME ( #98, #166 ) ;
#168 = CIRCLE ( 'NONE', #163, 25.00000000000000000 ) ;
#169 = EDGE_CURVE ( 'NONE', #117, #99, #11, .T. ) ;
#170 = DIRECTION ( 'NONE',  ( -1.000000000000000000, 0.0000000000000000000, 0.0000000000000000000 ) ) ;
#171 =( LENGTH_UNIT ( ) NAMED_UNIT ( * ) SI_UNIT ( .MILLI., .METRE. ) );
#172 = COORDINATED_UNIVERSAL_TIME_OFFSET ( 5, 0, .BEHIND. ) ;
#173 =( NAMED_UNIT ( * ) SI_UNIT ( $, .STERADIAN. ) SOLID_ANGLE_UNIT ( ) );
#174 = AXIS2_PLACEMENT_3D ( 'NONE', #103, #89, #57 ) ;
#175 = CARTESIAN_POINT ( 'NONE',  ( 0.0000000000000000000, 0.0000000000000000000, 0.0000000000000000000 ) ) ;
ENDSEC;
END-ISO-10303-21;
