ISO-10303-21;
HEADER;
FILE_DESCRIPTION (( 'STEP AP203' ),
    '1' );
FILE_NAME ('Web Model 37117MX_37121.step',
    '2017-10-30T12:46:22',
    ( '' ),
    ( '' ),
    'SwSTEP 2.0',
    'SolidWorks 2016',
    '' );
FILE_SCHEMA (( 'CONFIG_CONTROL_DESIGN' ));
ENDSEC;

DATA;
#1 = DIRECTION ( 'NONE',  ( 1.000000000000000000, 1.387778780781445700E-016, 0.0000000000000000000 ) ) ;
#2 = PERSON_AND_ORGANIZATION ( #179, #158 ) ;
#3 = AXIS2_PLACEMENT_3D ( 'NONE', #199, #222, #134 ) ;
#4 =( LENGTH_UNIT ( ) NAMED_UNIT ( * ) SI_UNIT ( .MILLI., .METRE. ) );
#5 = DIRECTION ( 'NONE',  ( -0.0000000000000000000, -1.000000000000000000, -0.0000000000000000000 ) ) ;
#6 = CARTESIAN_POINT ( 'NONE',  ( 0.0000000000000000000, 0.0000000000000000000, 3.000000000000000000 ) ) ;
#7 = LINE ( 'NONE', #20, #148 ) ;
#8 = CARTESIAN_POINT ( 'NONE',  ( 6.249999999999998200, 6.250000000000001800, -3.000000000000000000 ) ) ;
#9 = CC_DESIGN_APPROVAL ( #229, ( #43 ) ) ;
#10 = CC_DESIGN_PERSON_AND_ORGANIZATION_ASSIGNMENT ( #49, #132, ( #137 ) ) ;
#11 = VECTOR ( 'NONE', #143, 1000.000000000000000 ) ;
#12 = PERSON_AND_ORGANIZATION ( #179, #158 ) ;
#13 = PRODUCT_RELATED_PRODUCT_CATEGORY ( 'detail', '', ( #68 ) ) ;
#14 = MANIFOLD_SOLID_BREP ( 'Boss-Extrude1', #98 ) ;
#15 = COORDINATED_UNIVERSAL_TIME_OFFSET ( 5, 0, .BEHIND. ) ;
#16 = ADVANCED_BREP_SHAPE_REPRESENTATION ( 'Web Model 37117MX_37121', ( #14, #35 ), #64 ) ;
#17 = CARTESIAN_POINT ( 'NONE',  ( -6.250000000000000000, 6.250000000000000000, -3.000000000000000000 ) ) ;
#18 = DIRECTION ( 'NONE',  ( 1.000000000000000000, 0.0000000000000000000, -0.0000000000000000000 ) ) ;
#19 = VECTOR ( 'NONE', #182, 1000.000000000000000 ) ;
#20 = CARTESIAN_POINT ( 'NONE',  ( -6.250000000000000000, 6.250000000000000000, 3.000000000000000000 ) ) ;
#21 = CC_DESIGN_PERSON_AND_ORGANIZATION_ASSIGNMENT ( #80, #41, ( #43 ) ) ;
#22 = APPROVAL_ROLE ( '' ) ;
#23 = PERSON_AND_ORGANIZATION_ROLE ( 'design_owner' ) ;
#24 = CARTESIAN_POINT ( 'NONE',  ( -6.250000000000000000, 6.250000000000000000, 3.000000000000000000 ) ) ;
#25 = EDGE_LOOP ( 'NONE', ( #215, #150, #217, #103 ) ) ;
#26 = EDGE_CURVE ( 'NONE', #153, #157, #159, .T. ) ;
#27 = ORIENTED_EDGE ( 'NONE', *, *, #160, .F. ) ;
#28 = SECURITY_CLASSIFICATION ( '', '', #192 ) ;
#29 = PLANE ( 'NONE',  #145 ) ;
#30 = VECTOR ( 'NONE', #5, 1000.000000000000000 ) ;
#31 = CC_DESIGN_PERSON_AND_ORGANIZATION_ASSIGNMENT ( #142, #39, ( #28 ) ) ;
#32 = CARTESIAN_POINT ( 'NONE',  ( 6.249999999999998200, 6.250000000000001800, 3.000000000000000000 ) ) ;
#33 = ORIENTED_EDGE ( 'NONE', *, *, #170, .T. ) ;
#34 = LINE ( 'NONE', #91, #11 ) ;
#35 = AXIS2_PLACEMENT_3D ( 'NONE', #95, #113, #61 ) ;
#36 = ORIENTED_EDGE ( 'NONE', *, *, #160, .T. ) ;
#37 = PLANE ( 'NONE',  #226 ) ;
#38 = DATE_TIME_ROLE ( 'creation_date' ) ;
#39 = PERSON_AND_ORGANIZATION_ROLE ( 'classification_officer' ) ;
#40 = COORDINATED_UNIVERSAL_TIME_OFFSET ( 5, 0, .BEHIND. ) ;
#41 = PERSON_AND_ORGANIZATION_ROLE ( 'design_supplier' ) ;
#42 = ORIENTED_EDGE ( 'NONE', *, *, #122, .T. ) ;
#43 = PRODUCT_DEFINITION_FORMATION_WITH_SPECIFIED_SOURCE ( 'ANY', '', #68, .NOT_KNOWN. ) ;
#44 = FACE_OUTER_BOUND ( 'NONE', #228, .T. ) ;
#45 = VERTEX_POINT ( 'NONE', #177 ) ;
#46 = CC_DESIGN_APPROVAL ( #101, ( #28 ) ) ;
#47 = ORIENTED_EDGE ( 'NONE', *, *, #26, .F. ) ;
#48 = PLANE ( 'NONE',  #3 ) ;
#49 = PERSON_AND_ORGANIZATION ( #179, #158 ) ;
#50 = LOCAL_TIME ( 8, 46, 22.00000000000000000, #200 ) ;
#51 = ORIENTED_EDGE ( 'NONE', *, *, #94, .T. ) ;
#52 = EDGE_LOOP ( 'NONE', ( #33, #47, #121, #51 ) ) ;
#53 = DIRECTION ( 'NONE',  ( -0.0000000000000000000, -0.0000000000000000000, -1.000000000000000000 ) ) ;
#54 = CARTESIAN_POINT ( 'NONE',  ( 6.249999999999998200, -6.249999999999998200, 3.000000000000000000 ) ) ;
#55 = ORIENTED_EDGE ( 'NONE', *, *, #122, .F. ) ;
#56 = ADVANCED_FACE ( 'NONE', ( #139 ), #29, .F. ) ;
#57 = APPROVAL_STATUS ( 'not_yet_approved' ) ;
#58 = APPROVAL_ROLE ( '' ) ;
#59 = LINE ( 'NONE', #32, #87 ) ;
#60 = CARTESIAN_POINT ( 'NONE',  ( 6.249999999999998200, 6.250000000000001800, -3.000000000000000000 ) ) ;
#61 = DIRECTION ( 'NONE',  ( 1.000000000000000000, 0.0000000000000000000, 0.0000000000000000000 ) ) ;
#62 = COORDINATED_UNIVERSAL_TIME_OFFSET ( 5, 0, .BEHIND. ) ;
#63 = ORIENTED_EDGE ( 'NONE', *, *, #108, .T. ) ;
#64 =( GEOMETRIC_REPRESENTATION_CONTEXT ( 3 ) GLOBAL_UNCERTAINTY_ASSIGNED_CONTEXT ( ( #82 ) ) GLOBAL_UNIT_ASSIGNED_CONTEXT ( ( #4, #187, #75 ) ) REPRESENTATION_CONTEXT ( 'NONE', 'WORKASPACE' ) );
#65 = APPROVAL_PERSON_ORGANIZATION ( #114, #144, #22 ) ;
#66 = EDGE_CURVE ( 'NONE', #157, #195, #34, .T. ) ;
#67 = PLANE ( 'NONE',  #194 ) ;
#68 = PRODUCT ( 'Web Model 37117MX_37121', 'Web Model 37117MX_37121', '', ( #77 ) ) ;
#69 = PRODUCT_DEFINITION_SHAPE ( 'NONE', 'NONE',  #137 ) ;
#70 = SHAPE_DEFINITION_REPRESENTATION ( #69, #16 ) ;
#71 = LINE ( 'NONE', #216, #208 ) ;
#72 = DIRECTION ( 'NONE',  ( -1.000000000000000000, 0.0000000000000000000, 0.0000000000000000000 ) ) ;
#73 = DIRECTION ( 'NONE',  ( -0.0000000000000000000, -0.0000000000000000000, -1.000000000000000000 ) ) ;
#74 = VECTOR ( 'NONE', #162, 1000.000000000000000 ) ;
#75 =( NAMED_UNIT ( * ) SI_UNIT ( $, .STERADIAN. ) SOLID_ANGLE_UNIT ( ) );
#76 = ORIENTED_EDGE ( 'NONE', *, *, #173, .T. ) ;
#77 = MECHANICAL_CONTEXT ( 'NONE', #99, 'mechanical' ) ;
#78 = DIRECTION ( 'NONE',  ( 0.0000000000000000000, 0.0000000000000000000, -1.000000000000000000 ) ) ;
#79 = DATE_TIME_ROLE ( 'classification_date' ) ;
#80 = PERSON_AND_ORGANIZATION ( #179, #158 ) ;
#81 = LINE ( 'NONE', #152, #221 ) ;
#82 = UNCERTAINTY_MEASURE_WITH_UNIT (LENGTH_MEASURE( 1.000000000000000100E-005 ), #4, 'distance_accuracy_value', 'NONE');
#83 = APPROVAL_DATE_TIME ( #106, #144 ) ;
#84 = ORIENTED_EDGE ( 'NONE', *, *, #183, .F. ) ;
#85 = CARTESIAN_POINT ( 'NONE',  ( 6.249999999999998200, -6.249999999999998200, 3.000000000000000000 ) ) ;
#86 = DATE_AND_TIME ( #220, #198 ) ;
#87 = VECTOR ( 'NONE', #202, 1000.000000000000000 ) ;
#88 = PLANE ( 'NONE',  #89 ) ;
#89 = AXIS2_PLACEMENT_3D ( 'NONE', #232, #104, #1 ) ;
#90 = EDGE_LOOP ( 'NONE', ( #76, #140, #175, #236 ) ) ;
#91 = CARTESIAN_POINT ( 'NONE',  ( 6.249999999999998200, -6.249999999999998200, -3.000000000000000000 ) ) ;
#92 = PLANE ( 'NONE',  #219 ) ;
#93 = DIRECTION ( 'NONE',  ( -1.000000000000000000, -1.387778780781445900E-016, 0.0000000000000000000 ) ) ;
#94 = EDGE_CURVE ( 'NONE', #186, #45, #231, .T. ) ;
#95 = CARTESIAN_POINT ( 'NONE',  ( 0.0000000000000000000, 0.0000000000000000000, 0.0000000000000000000 ) ) ;
#96 = CARTESIAN_POINT ( 'NONE',  ( -6.250000000000000000, -6.250000000000000000, 3.000000000000000000 ) ) ;
#97 = CALENDAR_DATE ( 2017, 30, 10 ) ;
#98 = CLOSED_SHELL ( 'NONE', ( #167, #163, #56, #119, #169, #151 ) ) ;
#99 = APPLICATION_CONTEXT ( 'configuration controlled 3d designs of mechanical parts and assemblies' ) ;
#100 = EDGE_LOOP ( 'NONE', ( #107, #27, #55, #161 ) ) ;
#101 = APPROVAL ( #57, 'UNSPECIFIED' ) ;
#102 = LINE ( 'NONE', #8, #193 ) ;
#103 = ORIENTED_EDGE ( 'NONE', *, *, #170, .F. ) ;
#104 = DIRECTION ( 'NONE',  ( 1.387778780781445700E-016, -1.000000000000000000, 0.0000000000000000000 ) ) ;
#105 = DIRECTION ( 'NONE',  ( 0.0000000000000000000, -0.0000000000000000000, 1.000000000000000000 ) ) ;
#106 = DATE_AND_TIME ( #155, #206 ) ;
#107 = ORIENTED_EDGE ( 'NONE', *, *, #66, .T. ) ;
#108 = EDGE_CURVE ( 'NONE', #233, #214, #59, .T. ) ;
#109 = CARTESIAN_POINT ( 'NONE',  ( 6.249999999999998200, -6.249999999999998200, -3.000000000000000000 ) ) ;
#110 = DIRECTION ( 'NONE',  ( -0.0000000000000000000, -0.0000000000000000000, -1.000000000000000000 ) ) ;
#111 = DIRECTION ( 'NONE',  ( 1.000000000000000000, 0.0000000000000000000, -0.0000000000000000000 ) ) ;
#112 = APPROVAL_STATUS ( 'not_yet_approved' ) ;
#113 = DIRECTION ( 'NONE',  ( 0.0000000000000000000, 0.0000000000000000000, 1.000000000000000000 ) ) ;
#114 = PERSON_AND_ORGANIZATION ( #179, #158 ) ;
#115 = ORIENTED_EDGE ( 'NONE', *, *, #237, .T. ) ;
#116 = DIRECTION ( 'NONE',  ( 1.000000000000000000, 0.0000000000000000000, 0.0000000000000000000 ) ) ;
#117 = APPROVAL_ROLE ( '' ) ;
#118 = DIRECTION ( 'NONE',  ( -0.0000000000000000000, -0.0000000000000000000, -1.000000000000000000 ) ) ;
#119 = ADVANCED_FACE ( 'NONE', ( #44 ), #88, .F. ) ;
#120 = LINE ( 'NONE', #188, #30 ) ;
#121 = ORIENTED_EDGE ( 'NONE', *, *, #130, .F. ) ;
#122 = EDGE_CURVE ( 'NONE', #153, #233, #136, .T. ) ;
#123 = DIRECTION ( 'NONE',  ( 0.0000000000000000000, 0.0000000000000000000, 1.000000000000000000 ) ) ;
#124 = CARTESIAN_POINT ( 'NONE',  ( 6.249999999999998200, -6.249999999999998200, 3.000000000000000000 ) ) ;
#125 = LINE ( 'NONE', #96, #74 ) ;
#126 = PERSON_AND_ORGANIZATION ( #179, #158 ) ;
#127 = DIRECTION ( 'NONE',  ( 1.000000000000000000, 1.387778780781445900E-016, -0.0000000000000000000 ) ) ;
#128 = VECTOR ( 'NONE', #53, 1000.000000000000000 ) ;
#129 = DIRECTION ( 'NONE',  ( 0.0000000000000000000, -0.0000000000000000000, 1.000000000000000000 ) ) ;
#130 = EDGE_CURVE ( 'NONE', #186, #153, #71, .T. ) ;
#131 = APPLICATION_PROTOCOL_DEFINITION ( 'international standard', 'config_control_design', 1994, #147 ) ;
#132 = PERSON_AND_ORGANIZATION_ROLE ( 'creator' ) ;
#133 = DATE_AND_TIME ( #181, #227 ) ;
#134 = DIRECTION ( 'NONE',  ( -1.000000000000000000, -1.387778780781445700E-016, 0.0000000000000000000 ) ) ;
#135 = DATE_AND_TIME ( #230, #141 ) ;
#136 = LINE ( 'NONE', #85, #19 ) ;
#137 = PRODUCT_DEFINITION ( 'UNKNOWN', '', #43, #180 ) ;
#138 = FACE_OUTER_BOUND ( 'NONE', #52, .T. ) ;
#139 = FACE_OUTER_BOUND ( 'NONE', #100, .T. ) ;
#140 = ORIENTED_EDGE ( 'NONE', *, *, #94, .F. ) ;
#141 = LOCAL_TIME ( 8, 46, 22.00000000000000000, #62 ) ;
#142 = PERSON_AND_ORGANIZATION ( #179, #158 ) ;
#143 = DIRECTION ( 'NONE',  ( 0.0000000000000000000, 1.000000000000000000, 0.0000000000000000000 ) ) ;
#144 = APPROVAL ( #112, 'UNSPECIFIED' ) ;
#145 = AXIS2_PLACEMENT_3D ( 'NONE', #124, #72, #123 ) ;
#146 = CC_DESIGN_PERSON_AND_ORGANIZATION_ASSIGNMENT ( #126, #166, ( #43 ) ) ;
#147 = APPLICATION_CONTEXT ( 'configuration controlled 3d designs of mechanical parts and assemblies' ) ;
#148 = VECTOR ( 'NONE', #118, 1000.000000000000000 ) ;
#149 = DIRECTION ( 'NONE',  ( 1.000000000000000000, 1.387778780781445900E-016, -0.0000000000000000000 ) ) ;
#150 = ORIENTED_EDGE ( 'NONE', *, *, #210, .F. ) ;
#151 = ADVANCED_FACE ( 'NONE', ( #213 ), #92, .F. ) ;
#152 = CARTESIAN_POINT ( 'NONE',  ( 6.249999999999998200, -6.249999999999998200, -3.000000000000000000 ) ) ;
#153 = VERTEX_POINT ( 'NONE', #204 ) ;
#154 = COORDINATED_UNIVERSAL_TIME_OFFSET ( 5, 0, .BEHIND. ) ;
#155 = CALENDAR_DATE ( 2017, 30, 10 ) ;
#156 = VERTEX_POINT ( 'NONE', #17 ) ;
#157 = VERTEX_POINT ( 'NONE', #109 ) ;
#158 = ORGANIZATION ( 'UNSPECIFIED', 'UNSPECIFIED', '' ) ;
#159 = LINE ( 'NONE', #54, #207 ) ;
#160 = EDGE_CURVE ( 'NONE', #233, #195, #178, .T. ) ;
#161 = ORIENTED_EDGE ( 'NONE', *, *, #26, .T. ) ;
#162 = DIRECTION ( 'NONE',  ( -0.0000000000000000000, -1.000000000000000000, -0.0000000000000000000 ) ) ;
#163 = ADVANCED_FACE ( 'NONE', ( #138 ), #48, .F. ) ;
#164 = CARTESIAN_POINT ( 'NONE',  ( -6.250000000000000000, -6.250000000000000000, 3.000000000000000000 ) ) ;
#165 = EDGE_LOOP ( 'NONE', ( #115, #209, #42, #63 ) ) ;
#166 = PERSON_AND_ORGANIZATION_ROLE ( 'creator' ) ;
#167 = ADVANCED_FACE ( 'NONE', ( #171 ), #67, .F. ) ;
#168 = APPLICATION_PROTOCOL_DEFINITION ( 'international standard', 'config_control_design', 1994, #99 ) ;
#169 = ADVANCED_FACE ( 'NONE', ( #225 ), #37, .T. ) ;
#170 = EDGE_CURVE ( 'NONE', #45, #157, #81, .T. ) ;
#171 = FACE_OUTER_BOUND ( 'NONE', #90, .T. ) ;
#172 = CC_DESIGN_APPROVAL ( #144, ( #137 ) ) ;
#173 = EDGE_CURVE ( 'NONE', #156, #45, #120, .T. ) ;
#174 = APPROVAL_DATE_TIME ( #133, #229 ) ;
#175 = ORIENTED_EDGE ( 'NONE', *, *, #237, .F. ) ;
#176 = CARTESIAN_POINT ( 'NONE',  ( 6.249999999999998200, 6.250000000000001800, 3.000000000000000000 ) ) ;
#177 = CARTESIAN_POINT ( 'NONE',  ( -6.250000000000000000, -6.250000000000000000, -3.000000000000000000 ) ) ;
#178 = LINE ( 'NONE', #176, #185 ) ;
#179 = PERSON ( 'UNSPECIFIED', 'UNSPECIFIED', 'UNSPECIFIED', ('UNSPECIFIED'), ('UNSPECIFIED'), ('UNSPECIFIED') ) ;
#180 = DESIGN_CONTEXT ( 'detailed design', #147, 'design' ) ;
#181 = CALENDAR_DATE ( 2017, 30, 10 ) ;
#182 = DIRECTION ( 'NONE',  ( 0.0000000000000000000, 1.000000000000000000, 0.0000000000000000000 ) ) ;
#183 = EDGE_CURVE ( 'NONE', #214, #156, #7, .T. ) ;
#184 = APPROVAL_DATE_TIME ( #135, #101 ) ;
#185 = VECTOR ( 'NONE', #73, 1000.000000000000000 ) ;
#186 = VERTEX_POINT ( 'NONE', #164 ) ;
#187 =( NAMED_UNIT ( * ) PLANE_ANGLE_UNIT ( ) SI_UNIT ( $, .RADIAN. ) );
#188 = CARTESIAN_POINT ( 'NONE',  ( -6.250000000000000000, -6.250000000000000000, -3.000000000000000000 ) ) ;
#189 = CARTESIAN_POINT ( 'NONE',  ( -6.250000000000000000, -6.250000000000000000, 3.000000000000000000 ) ) ;
#190 = APPROVAL_PERSON_ORGANIZATION ( #2, #229, #117 ) ;
#191 = ORIENTED_EDGE ( 'NONE', *, *, #108, .F. ) ;
#192 = SECURITY_CLASSIFICATION_LEVEL ( 'unclassified' ) ;
#193 = VECTOR ( 'NONE', #93, 1000.000000000000000 ) ;
#194 = AXIS2_PLACEMENT_3D ( 'NONE', #189, #116, #78 ) ;
#195 = VERTEX_POINT ( 'NONE', #60 ) ;
#196 = PERSON_AND_ORGANIZATION ( #179, #158 ) ;
#197 = CC_DESIGN_SECURITY_CLASSIFICATION ( #28, ( #43 ) ) ;
#198 = LOCAL_TIME ( 8, 46, 22.00000000000000000, #154 ) ;
#199 = CARTESIAN_POINT ( 'NONE',  ( 6.249999999999998200, -6.249999999999998200, 3.000000000000000000 ) ) ;
#200 = COORDINATED_UNIVERSAL_TIME_OFFSET ( 5, 0, .BEHIND. ) ;
#201 = ORIENTED_EDGE ( 'NONE', *, *, #210, .T. ) ;
#202 = DIRECTION ( 'NONE',  ( -1.000000000000000000, -1.387778780781445900E-016, 0.0000000000000000000 ) ) ;
#203 = APPROVAL_PERSON_ORGANIZATION ( #12, #101, #58 ) ;
#204 = CARTESIAN_POINT ( 'NONE',  ( 6.249999999999998200, -6.249999999999998200, 3.000000000000000000 ) ) ;
#205 = CC_DESIGN_PERSON_AND_ORGANIZATION_ASSIGNMENT ( #196, #23, ( #68 ) ) ;
#206 = LOCAL_TIME ( 8, 46, 22.00000000000000000, #15 ) ;
#207 = VECTOR ( 'NONE', #110, 1000.000000000000000 ) ;
#208 = VECTOR ( 'NONE', #127, 1000.000000000000000 ) ;
#209 = ORIENTED_EDGE ( 'NONE', *, *, #130, .T. ) ;
#210 = EDGE_CURVE ( 'NONE', #195, #156, #102, .T. ) ;
#211 = CC_DESIGN_DATE_AND_TIME_ASSIGNMENT ( #86, #79, ( #28 ) ) ;
#212 = CARTESIAN_POINT ( 'NONE',  ( 0.0000000000000000000, 0.0000000000000000000, -3.000000000000000000 ) ) ;
#213 = FACE_OUTER_BOUND ( 'NONE', #25, .T. ) ;
#214 = VERTEX_POINT ( 'NONE', #24 ) ;
#215 = ORIENTED_EDGE ( 'NONE', *, *, #173, .F. ) ;
#216 = CARTESIAN_POINT ( 'NONE',  ( 6.249999999999998200, -6.249999999999998200, 3.000000000000000000 ) ) ;
#217 = ORIENTED_EDGE ( 'NONE', *, *, #66, .F. ) ;
#218 = CARTESIAN_POINT ( 'NONE',  ( -6.250000000000000000, -6.250000000000000000, 3.000000000000000000 ) ) ;
#219 = AXIS2_PLACEMENT_3D ( 'NONE', #212, #105, #111 ) ;
#220 = CALENDAR_DATE ( 2017, 30, 10 ) ;
#221 = VECTOR ( 'NONE', #149, 1000.000000000000000 ) ;
#222 = DIRECTION ( 'NONE',  ( -1.387778780781445700E-016, 1.000000000000000000, 0.0000000000000000000 ) ) ;
#223 = CARTESIAN_POINT ( 'NONE',  ( 6.249999999999998200, 6.250000000000001800, 3.000000000000000000 ) ) ;
#224 = APPROVAL_STATUS ( 'not_yet_approved' ) ;
#225 = FACE_OUTER_BOUND ( 'NONE', #165, .T. ) ;
#226 = AXIS2_PLACEMENT_3D ( 'NONE', #6, #129, #18 ) ;
#227 = LOCAL_TIME ( 8, 46, 22.00000000000000000, #40 ) ;
#228 = EDGE_LOOP ( 'NONE', ( #201, #84, #191, #36 ) ) ;
#229 = APPROVAL ( #224, 'UNSPECIFIED' ) ;
#230 = CALENDAR_DATE ( 2017, 30, 10 ) ;
#231 = LINE ( 'NONE', #218, #128 ) ;
#232 = CARTESIAN_POINT ( 'NONE',  ( 6.249999999999998200, 6.250000000000001800, 3.000000000000000000 ) ) ;
#233 = VERTEX_POINT ( 'NONE', #223 ) ;
#234 = CC_DESIGN_DATE_AND_TIME_ASSIGNMENT ( #235, #38, ( #137 ) ) ;
#235 = DATE_AND_TIME ( #97, #50 ) ;
#236 = ORIENTED_EDGE ( 'NONE', *, *, #183, .T. ) ;
#237 = EDGE_CURVE ( 'NONE', #214, #186, #125, .T. ) ;
ENDSEC;
END-ISO-10303-21;
