ISO-10303-21;
HEADER;
FILE_DESCRIPTION (( 'STEP AP203' ),
    '1' );
FILE_NAME ('Web Model 84458.STEP',
    '2017-02-01T15:44:56',
    ( '' ),
    ( '' ),
    'SwSTEP 2.0',
    'SolidWorks 2016',
    '' );
FILE_SCHEMA (( 'CONFIG_CONTROL_DESIGN' ));
ENDSEC;

DATA;
#1 = DATE_AND_TIME ( #164, #21 ) ;
#2 = PERSON_AND_ORGANIZATION ( #168, #12 ) ;
#3 = PERSON_AND_ORGANIZATION ( #168, #12 ) ;
#4 = PRODUCT_RELATED_PRODUCT_CATEGORY ( 'detail', '', ( #75 ) ) ;
#5 = APPROVAL ( #40, 'UNSPECIFIED' ) ;
#6 = FACE_OUTER_BOUND ( 'NONE', #69, .T. ) ;
#7 = DATE_AND_TIME ( #154, #46 ) ;
#8 = ADVANCED_FACE ( 'NONE', ( #171 ), #152, .T. ) ;
#9 = LINE ( 'NONE', #159, #43 ) ;
#10 = VERTEX_POINT ( 'NONE', #86 ) ;
#11 = PERSON_AND_ORGANIZATION_ROLE ( 'design_owner' ) ;
#12 = ORGANIZATION ( 'UNSPECIFIED', 'UNSPECIFIED', '' ) ;
#13 = DATE_TIME_ROLE ( 'creation_date' ) ;
#14 = CC_DESIGN_APPROVAL ( #155, ( #163 ) ) ;
#15 = COORDINATED_UNIVERSAL_TIME_OFFSET ( 5, 0, .BEHIND. ) ;
#16 = CC_DESIGN_APPROVAL ( #5, ( #31 ) ) ;
#17 = LOCAL_TIME ( 10, 44, 56.00000000000000000, #15 ) ;
#18 = DIRECTION ( 'NONE',  ( -0.0000000000000000000, -0.0000000000000000000, -1.000000000000000000 ) ) ;
#19 = CARTESIAN_POINT ( 'NONE',  ( 0.0000000000000000000, 0.0000000000000000000, 0.0000000000000000000 ) ) ;
#20 = PLANE ( 'NONE',  #28 ) ;
#21 = LOCAL_TIME ( 10, 44, 56.00000000000000000, #116 ) ;
#22 = APPROVAL_ROLE ( '' ) ;
#23 =( GEOMETRIC_REPRESENTATION_CONTEXT ( 3 ) GLOBAL_UNCERTAINTY_ASSIGNED_CONTEXT ( ( #126 ) ) GLOBAL_UNIT_ASSIGNED_CONTEXT ( ( #125, #162, #93 ) ) REPRESENTATION_CONTEXT ( 'NONE', 'WORKASPACE' ) );
#24 = CARTESIAN_POINT ( 'NONE',  ( -25.00000000000000000, 0.0000000000000000000, 5.000000000000000000 ) ) ;
#25 = ADVANCED_FACE ( 'NONE', ( #50 ), #20, .T. ) ;
#26 = SHAPE_DEFINITION_REPRESENTATION ( #160, #53 ) ;
#27 = DATE_TIME_ROLE ( 'classification_date' ) ;
#28 = AXIS2_PLACEMENT_3D ( 'NONE', #157, #51, #147 ) ;
#29 = COORDINATED_UNIVERSAL_TIME_OFFSET ( 5, 0, .BEHIND. ) ;
#30 = AXIS2_PLACEMENT_3D ( 'NONE', #121, #138, #67 ) ;
#31 = SECURITY_CLASSIFICATION ( '', '', #175 ) ;
#32 = CALENDAR_DATE ( 2017, 1, 2 ) ;
#33 = DIRECTION ( 'NONE',  ( 0.0000000000000000000, 0.0000000000000000000, 1.000000000000000000 ) ) ;
#34 = CIRCLE ( 'NONE', #108, 25.00000000000000000 ) ;
#35 = ADVANCED_FACE ( 'NONE', ( #6 ), #97, .T. ) ;
#36 = AXIS2_PLACEMENT_3D ( 'NONE', #120, #18, #62 ) ;
#37 = DIRECTION ( 'NONE',  ( 0.0000000000000000000, 0.0000000000000000000, 1.000000000000000000 ) ) ;
#38 = DIRECTION ( 'NONE',  ( 0.0000000000000000000, 0.0000000000000000000, 1.000000000000000000 ) ) ;
#39 = ORIENTED_EDGE ( 'NONE', *, *, #64, .T. ) ;
#40 = APPROVAL_STATUS ( 'not_yet_approved' ) ;
#41 = PERSON_AND_ORGANIZATION_ROLE ( 'classification_officer' ) ;
#42 = APPROVAL_ROLE ( '' ) ;
#43 = VECTOR ( 'NONE', #100, 1000.000000000000000 ) ;
#44 = LINE ( 'NONE', #76, #169 ) ;
#45 = CC_DESIGN_APPROVAL ( #104, ( #143 ) ) ;
#46 = LOCAL_TIME ( 10, 44, 56.00000000000000000, #122 ) ;
#47 = DIRECTION ( 'NONE',  ( 0.0000000000000000000, 0.0000000000000000000, 1.000000000000000000 ) ) ;
#48 = CLOSED_SHELL ( 'NONE', ( #8, #35, #25, #106 ) ) ;
#49 = APPROVAL_PERSON_ORGANIZATION ( #117, #5, #42 ) ;
#50 = FACE_OUTER_BOUND ( 'NONE', #59, .T. ) ;
#51 = DIRECTION ( 'NONE',  ( 0.0000000000000000000, 0.0000000000000000000, 1.000000000000000000 ) ) ;
#52 = FACE_OUTER_BOUND ( 'NONE', #113, .T. ) ;
#53 = ADVANCED_BREP_SHAPE_REPRESENTATION ( 'Web Model 84458', ( #127, #166 ), #23 ) ;
#54 = MECHANICAL_CONTEXT ( 'NONE', #105, 'mechanical' ) ;
#55 = DATE_AND_TIME ( #84, #70 ) ;
#56 = CC_DESIGN_PERSON_AND_ORGANIZATION_ASSIGNMENT ( #103, #151, ( #143 ) ) ;
#57 = ORIENTED_EDGE ( 'NONE', *, *, #144, .F. ) ;
#58 = APPROVAL_PERSON_ORGANIZATION ( #3, #104, #22 ) ;
#59 = EDGE_LOOP ( 'NONE', ( #89, #83 ) ) ;
#60 = APPROVAL_DATE_TIME ( #141, #5 ) ;
#61 = DIRECTION ( 'NONE',  ( -1.000000000000000000, 0.0000000000000000000, 0.0000000000000000000 ) ) ;
#62 = DIRECTION ( 'NONE',  ( -1.000000000000000000, 0.0000000000000000000, 0.0000000000000000000 ) ) ;
#63 = CC_DESIGN_DATE_AND_TIME_ASSIGNMENT ( #55, #13, ( #143 ) ) ;
#64 = EDGE_CURVE ( 'NONE', #165, #10, #9, .T. ) ;
#65 = CARTESIAN_POINT ( 'NONE',  ( 0.0000000000000000000, 0.0000000000000000000, 0.0000000000000000000 ) ) ;
#66 = PERSON_AND_ORGANIZATION ( #168, #12 ) ;
#67 = DIRECTION ( 'NONE',  ( 1.000000000000000000, 0.0000000000000000000, -0.0000000000000000000 ) ) ;
#68 = EDGE_CURVE ( 'NONE', #10, #153, #115, .T. ) ;
#69 = EDGE_LOOP ( 'NONE', ( #145, #57, #167, #137 ) ) ;
#70 = LOCAL_TIME ( 10, 44, 56.00000000000000000, #131 ) ;
#71 = EDGE_CURVE ( 'NONE', #153, #10, #109, .T. ) ;
#72 = CC_DESIGN_PERSON_AND_ORGANIZATION_ASSIGNMENT ( #66, #110, ( #163 ) ) ;
#73 = DIRECTION ( 'NONE',  ( 1.000000000000000000, 0.0000000000000000000, 0.0000000000000000000 ) ) ;
#74 = ORIENTED_EDGE ( 'NONE', *, *, #79, .F. ) ;
#75 = PRODUCT ( 'Web Model 84458', 'Web Model 84458', '', ( #54 ) ) ;
#76 = CARTESIAN_POINT ( 'NONE',  ( -25.00000000000000000, 0.0000000000000000000, 5.000000000000000000 ) ) ;
#77 = DIRECTION ( 'NONE',  ( 1.000000000000000000, 0.0000000000000000000, 0.0000000000000000000 ) ) ;
#78 = DIRECTION ( 'NONE',  ( 0.0000000000000000000, 0.0000000000000000000, 1.000000000000000000 ) ) ;
#79 = EDGE_CURVE ( 'NONE', #165, #119, #149, .T. ) ;
#80 = ORIENTED_EDGE ( 'NONE', *, *, #68, .F. ) ;
#81 = CC_DESIGN_DATE_AND_TIME_ASSIGNMENT ( #7, #27, ( #31 ) ) ;
#82 = ORIENTED_EDGE ( 'NONE', *, *, #71, .F. ) ;
#83 = ORIENTED_EDGE ( 'NONE', *, *, #79, .T. ) ;
#84 = CALENDAR_DATE ( 2017, 1, 2 ) ;
#85 = AXIS2_PLACEMENT_3D ( 'NONE', #134, #47, #87 ) ;
#86 = CARTESIAN_POINT ( 'NONE',  ( 25.00000000000000000, 3.061616997868383000E-015, 0.0000000000000000000 ) ) ;
#87 = DIRECTION ( 'NONE',  ( 1.000000000000000000, 0.0000000000000000000, 0.0000000000000000000 ) ) ;
#88 = DIRECTION ( 'NONE',  ( -0.0000000000000000000, -0.0000000000000000000, -1.000000000000000000 ) ) ;
#89 = ORIENTED_EDGE ( 'NONE', *, *, #144, .T. ) ;
#90 = APPLICATION_CONTEXT ( 'configuration controlled 3d designs of mechanical parts and assemblies' ) ;
#91 = APPROVAL_DATE_TIME ( #1, #104 ) ;
#92 = CC_DESIGN_SECURITY_CLASSIFICATION ( #31, ( #163 ) ) ;
#93 =( NAMED_UNIT ( * ) SI_UNIT ( $, .STERADIAN. ) SOLID_ANGLE_UNIT ( ) );
#94 = CC_DESIGN_PERSON_AND_ORGANIZATION_ASSIGNMENT ( #156, #41, ( #31 ) ) ;
#95 = PERSON_AND_ORGANIZATION ( #168, #12 ) ;
#96 = CALENDAR_DATE ( 2017, 1, 2 ) ;
#97 = CYLINDRICAL_SURFACE ( 'NONE', #36, 25.00000000000000000 ) ;
#98 = EDGE_CURVE ( 'NONE', #119, #153, #44, .T. ) ;
#99 = APPROVAL_DATE_TIME ( #111, #155 ) ;
#100 = DIRECTION ( 'NONE',  ( -0.0000000000000000000, -0.0000000000000000000, -1.000000000000000000 ) ) ;
#101 = AXIS2_PLACEMENT_3D ( 'NONE', #135, #88, #61 ) ;
#102 = APPROVAL_STATUS ( 'not_yet_approved' ) ;
#103 = PERSON_AND_ORGANIZATION ( #168, #12 ) ;
#104 = APPROVAL ( #102, 'UNSPECIFIED' ) ;
#105 = APPLICATION_CONTEXT ( 'configuration controlled 3d designs of mechanical parts and assemblies' ) ;
#106 = ADVANCED_FACE ( 'NONE', ( #52 ), #161, .F. ) ;
#107 = APPLICATION_PROTOCOL_DEFINITION ( 'international standard', 'config_control_design', 1994, #90 ) ;
#108 = AXIS2_PLACEMENT_3D ( 'NONE', #173, #37, #139 ) ;
#109 = CIRCLE ( 'NONE', #85, 25.00000000000000000 ) ;
#110 = PERSON_AND_ORGANIZATION_ROLE ( 'design_supplier' ) ;
#111 = DATE_AND_TIME ( #32, #17 ) ;
#112 = APPROVAL_STATUS ( 'not_yet_approved' ) ;
#113 = EDGE_LOOP ( 'NONE', ( #82, #80 ) ) ;
#114 = EDGE_LOOP ( 'NONE', ( #74, #39, #158, #133 ) ) ;
#115 = CIRCLE ( 'NONE', #132, 25.00000000000000000 ) ;
#116 = COORDINATED_UNIVERSAL_TIME_OFFSET ( 5, 0, .BEHIND. ) ;
#117 = PERSON_AND_ORGANIZATION ( #168, #12 ) ;
#118 = DIRECTION ( 'NONE',  ( -0.0000000000000000000, -0.0000000000000000000, -1.000000000000000000 ) ) ;
#119 = VERTEX_POINT ( 'NONE', #24 ) ;
#120 = CARTESIAN_POINT ( 'NONE',  ( 0.0000000000000000000, 0.0000000000000000000, 5.000000000000000000 ) ) ;
#121 = CARTESIAN_POINT ( 'NONE',  ( 0.0000000000000000000, 0.0000000000000000000, 0.0000000000000000000 ) ) ;
#122 = COORDINATED_UNIVERSAL_TIME_OFFSET ( 5, 0, .BEHIND. ) ;
#123 = CC_DESIGN_PERSON_AND_ORGANIZATION_ASSIGNMENT ( #95, #11, ( #75 ) ) ;
#124 = CARTESIAN_POINT ( 'NONE',  ( 0.0000000000000000000, 0.0000000000000000000, 5.000000000000000000 ) ) ;
#125 =( LENGTH_UNIT ( ) NAMED_UNIT ( * ) SI_UNIT ( .MILLI., .METRE. ) );
#126 = UNCERTAINTY_MEASURE_WITH_UNIT (LENGTH_MEASURE( 1.000000000000000100E-005 ), #125, 'distance_accuracy_value', 'NONE');
#127 = MANIFOLD_SOLID_BREP ( 'Extrude1', #48 ) ;
#128 = APPROVAL_ROLE ( '' ) ;
#129 = PERSON_AND_ORGANIZATION ( #168, #12 ) ;
#130 = CC_DESIGN_PERSON_AND_ORGANIZATION_ASSIGNMENT ( #129, #140, ( #163 ) ) ;
#131 = COORDINATED_UNIVERSAL_TIME_OFFSET ( 5, 0, .BEHIND. ) ;
#132 = AXIS2_PLACEMENT_3D ( 'NONE', #19, #33, #73 ) ;
#133 = ORIENTED_EDGE ( 'NONE', *, *, #98, .F. ) ;
#134 = CARTESIAN_POINT ( 'NONE',  ( 0.0000000000000000000, 0.0000000000000000000, 0.0000000000000000000 ) ) ;
#135 = CARTESIAN_POINT ( 'NONE',  ( 0.0000000000000000000, 0.0000000000000000000, 5.000000000000000000 ) ) ;
#136 = CARTESIAN_POINT ( 'NONE',  ( 25.00000000000000000, 3.061616997868383000E-015, 5.000000000000000000 ) ) ;
#137 = ORIENTED_EDGE ( 'NONE', *, *, #71, .T. ) ;
#138 = DIRECTION ( 'NONE',  ( 0.0000000000000000000, 0.0000000000000000000, 1.000000000000000000 ) ) ;
#139 = DIRECTION ( 'NONE',  ( 1.000000000000000000, 0.0000000000000000000, 0.0000000000000000000 ) ) ;
#140 = PERSON_AND_ORGANIZATION_ROLE ( 'creator' ) ;
#141 = DATE_AND_TIME ( #96, #142 ) ;
#142 = LOCAL_TIME ( 10, 44, 56.00000000000000000, #29 ) ;
#143 = PRODUCT_DEFINITION ( 'UNKNOWN', '', #163, #150 ) ;
#144 = EDGE_CURVE ( 'NONE', #119, #165, #34, .T. ) ;
#145 = ORIENTED_EDGE ( 'NONE', *, *, #64, .F. ) ;
#146 = APPROVAL_PERSON_ORGANIZATION ( #2, #155, #128 ) ;
#147 = DIRECTION ( 'NONE',  ( 1.000000000000000000, 0.0000000000000000000, -0.0000000000000000000 ) ) ;
#148 = CARTESIAN_POINT ( 'NONE',  ( -25.00000000000000000, 0.0000000000000000000, 0.0000000000000000000 ) ) ;
#149 = CIRCLE ( 'NONE', #172, 25.00000000000000000 ) ;
#150 = DESIGN_CONTEXT ( 'detailed design', #90, 'design' ) ;
#151 = PERSON_AND_ORGANIZATION_ROLE ( 'creator' ) ;
#152 = CYLINDRICAL_SURFACE ( 'NONE', #101, 25.00000000000000000 ) ;
#153 = VERTEX_POINT ( 'NONE', #148 ) ;
#154 = CALENDAR_DATE ( 2017, 1, 2 ) ;
#155 = APPROVAL ( #112, 'UNSPECIFIED' ) ;
#156 = PERSON_AND_ORGANIZATION ( #168, #12 ) ;
#157 = CARTESIAN_POINT ( 'NONE',  ( 0.0000000000000000000, 0.0000000000000000000, 5.000000000000000000 ) ) ;
#158 = ORIENTED_EDGE ( 'NONE', *, *, #68, .T. ) ;
#159 = CARTESIAN_POINT ( 'NONE',  ( 25.00000000000000000, 3.061616997868383000E-015, 5.000000000000000000 ) ) ;
#160 = PRODUCT_DEFINITION_SHAPE ( 'NONE', 'NONE',  #143 ) ;
#161 = PLANE ( 'NONE',  #30 ) ;
#162 =( NAMED_UNIT ( * ) PLANE_ANGLE_UNIT ( ) SI_UNIT ( $, .RADIAN. ) );
#163 = PRODUCT_DEFINITION_FORMATION_WITH_SPECIFIED_SOURCE ( 'ANY', '', #75, .NOT_KNOWN. ) ;
#164 = CALENDAR_DATE ( 2017, 1, 2 ) ;
#165 = VERTEX_POINT ( 'NONE', #136 ) ;
#166 = AXIS2_PLACEMENT_3D ( 'NONE', #65, #78, #174 ) ;
#167 = ORIENTED_EDGE ( 'NONE', *, *, #98, .T. ) ;
#168 = PERSON ( 'UNSPECIFIED', 'UNSPECIFIED', 'UNSPECIFIED', ('UNSPECIFIED'), ('UNSPECIFIED'), ('UNSPECIFIED') ) ;
#169 = VECTOR ( 'NONE', #118, 1000.000000000000000 ) ;
#170 = APPLICATION_PROTOCOL_DEFINITION ( 'international standard', 'config_control_design', 1994, #105 ) ;
#171 = FACE_OUTER_BOUND ( 'NONE', #114, .T. ) ;
#172 = AXIS2_PLACEMENT_3D ( 'NONE', #124, #38, #77 ) ;
#173 = CARTESIAN_POINT ( 'NONE',  ( 0.0000000000000000000, 0.0000000000000000000, 5.000000000000000000 ) ) ;
#174 = DIRECTION ( 'NONE',  ( 1.000000000000000000, 0.0000000000000000000, 0.0000000000000000000 ) ) ;
#175 = SECURITY_CLASSIFICATION_LEVEL ( 'unclassified' ) ;
ENDSEC;
END-ISO-10303-21;
