ISO-10303-21;
HEADER;
FILE_DESCRIPTION (( 'STEP AP203' ),
    '1' );
FILE_NAME ('Web Model 36936_15802.step',
    '2020-11-03T21:41:26',
    ( '' ),
    ( '' ),
    'SwSTEP 2.0',
    'SolidWorks 2018',
    '' );
FILE_SCHEMA (( 'CONFIG_CONTROL_DESIGN' ));
ENDSEC;

DATA;
#1 = ORGANIZATION ( 'UNSPECIFIED', 'UNSPECIFIED', '' ) ;
#2 = PERSON_AND_ORGANIZATION_ROLE ( 'creator' ) ;
#3 = APPLICATION_PROTOCOL_DEFINITION ( 'international standard', 'config_control_design', 1994, #26 ) ;
#4 = UNCERTAINTY_MEASURE_WITH_UNIT (LENGTH_MEASURE( 1.000000000000000082E-05 ), #158, 'distance_accuracy_value', 'NONE');
#5 = ORIENTED_EDGE ( 'NONE', *, *, #157, .T. ) ;
#6 = CARTESIAN_POINT ( 'NONE',  ( -37.50000000000000711, 0.0000000000000000000, 2.500000000000000000 ) ) ;
#7 = CALENDAR_DATE ( 2020, 3, 11 ) ;
#8 = VERTEX_POINT ( 'NONE', #93 ) ;
#9 = EDGE_LOOP ( 'NONE', ( #136, #124, #154, #120 ) ) ;
#10 = MECHANICAL_CONTEXT ( 'NONE', #87, 'mechanical' ) ;
#11 = PERSON_AND_ORGANIZATION ( #171, #1 ) ;
#12 = DIRECTION ( 'NONE',  ( 1.000000000000000000, 0.0000000000000000000, 0.0000000000000000000 ) ) ;
#13 = DATE_AND_TIME ( #146, #53 ) ;
#14 = VERTEX_POINT ( 'NONE', #19 ) ;
#15 = LINE ( 'NONE', #116, #45 ) ;
#16 = ADVANCED_FACE ( 'NONE', ( #114 ), #167, .T. ) ;
#17 = DIRECTION ( 'NONE',  ( 1.000000000000000000, 0.0000000000000000000, 0.0000000000000000000 ) ) ;
#18 = PLANE ( 'NONE',  #76 ) ;
#19 = CARTESIAN_POINT ( 'NONE',  ( -37.50000000000000711, 0.0000000000000000000, -2.500000000000000000 ) ) ;
#20 = COORDINATED_UNIVERSAL_TIME_OFFSET ( 5, 0, .BEHIND. ) ;
#21 = CC_DESIGN_PERSON_AND_ORGANIZATION_ASSIGNMENT ( #156, #164, ( #100 ) ) ;
#22 = DATE_AND_TIME ( #166, #27 ) ;
#23 = AXIS2_PLACEMENT_3D ( 'NONE', #37, #84, #70 ) ;
#24 = FACE_OUTER_BOUND ( 'NONE', #9, .T. ) ;
#25 = EDGE_CURVE ( 'NONE', #14, #8, #80, .T. ) ;
#26 = APPLICATION_CONTEXT ( 'configuration controlled 3d designs of mechanical parts and assemblies' ) ;
#27 = LOCAL_TIME ( 16, 41, 25.00000000000000000, #73 ) ;
#28 = CC_DESIGN_PERSON_AND_ORGANIZATION_ASSIGNMENT ( #137, #160, ( #33 ) ) ;
#29 = DIRECTION ( 'NONE',  ( 0.0000000000000000000, 0.0000000000000000000, 1.000000000000000000 ) ) ;
#30 = CARTESIAN_POINT ( 'NONE',  ( 0.0000000000000000000, 0.0000000000000000000, -2.500000000000000000 ) ) ;
#31 = DATE_AND_TIME ( #131, #119 ) ;
#32 = DIRECTION ( 'NONE',  ( -1.000000000000000000, 0.0000000000000000000, 0.0000000000000000000 ) ) ;
#33 = PRODUCT ( 'Web Model 36936_15802', 'Web Model 36936_15802', '', ( #10 ) ) ;
#34 = CIRCLE ( 'NONE', #95, 37.50000000000000711 ) ;
#35 = ORIENTED_EDGE ( 'NONE', *, *, #98, .T. ) ;
#36 = CARTESIAN_POINT ( 'NONE',  ( 0.0000000000000000000, 0.0000000000000000000, 2.500000000000000000 ) ) ;
#37 = CARTESIAN_POINT ( 'NONE',  ( 0.0000000000000000000, 0.0000000000000000000, 0.0000000000000000000 ) ) ;
#38 = CC_DESIGN_PERSON_AND_ORGANIZATION_ASSIGNMENT ( #42, #41, ( #50 ) ) ;
#39 = ORIENTED_EDGE ( 'NONE', *, *, #157, .F. ) ;
#40 = PERSON_AND_ORGANIZATION ( #171, #1 ) ;
#41 = PERSON_AND_ORGANIZATION_ROLE ( 'creator' ) ;
#42 = PERSON_AND_ORGANIZATION ( #171, #1 ) ;
#43 = EDGE_CURVE ( 'NONE', #72, #8, #15, .T. ) ;
#44 = DIRECTION ( 'NONE',  ( 0.0000000000000000000, 0.0000000000000000000, 1.000000000000000000 ) ) ;
#45 = VECTOR ( 'NONE', #117, 1000.000000000000000 ) ;
#46 = DIRECTION ( 'NONE',  ( -1.000000000000000000, 0.0000000000000000000, 0.0000000000000000000 ) ) ;
#47 = ADVANCED_BREP_SHAPE_REPRESENTATION ( 'Web Model 36936_15802', ( #85, #23 ), #109 ) ;
#48 = DIRECTION ( 'NONE',  ( 1.000000000000000000, 0.0000000000000000000, 0.0000000000000000000 ) ) ;
#49 = LOCAL_TIME ( 16, 41, 25.00000000000000000, #57 ) ;
#50 = PRODUCT_DEFINITION ( 'UNKNOWN', '', #100, #129 ) ;
#51 = SHAPE_DEFINITION_REPRESENTATION ( #81, #47 ) ;
#52 = ORIENTED_EDGE ( 'NONE', *, *, #67, .F. ) ;
#53 = LOCAL_TIME ( 16, 41, 25.00000000000000000, #123 ) ;
#54 = DIRECTION ( 'NONE',  ( 1.000000000000000000, 0.0000000000000000000, 0.0000000000000000000 ) ) ;
#55 = AXIS2_PLACEMENT_3D ( 'NONE', #30, #77, #17 ) ;
#56 = DIRECTION ( 'NONE',  ( 0.0000000000000000000, 0.0000000000000000000, 1.000000000000000000 ) ) ;
#57 = COORDINATED_UNIVERSAL_TIME_OFFSET ( 5, 0, .BEHIND. ) ;
#58 = APPROVAL_STATUS ( 'not_yet_approved' ) ;
#59 = APPROVAL_ROLE ( '' ) ;
#60 = APPROVAL_DATE_TIME ( #163, #74 ) ;
#61 = ORIENTED_EDGE ( 'NONE', *, *, #43, .F. ) ;
#62 = APPROVAL_PERSON_ORGANIZATION ( #173, #64, #59 ) ;
#63 = CARTESIAN_POINT ( 'NONE',  ( 0.0000000000000000000, 0.0000000000000000000, -2.500000000000000000 ) ) ;
#64 = APPROVAL ( #110, 'UNSPECIFIED' ) ;
#65 = DIRECTION ( 'NONE',  ( 0.0000000000000000000, 0.0000000000000000000, 1.000000000000000000 ) ) ;
#66 = AXIS2_PLACEMENT_3D ( 'NONE', #79, #155, #32 ) ;
#67 = EDGE_CURVE ( 'NONE', #8, #14, #152, .T. ) ;
#68 = CC_DESIGN_APPROVAL ( #74, ( #153 ) ) ;
#69 = CIRCLE ( 'NONE', #107, 37.50000000000000711 ) ;
#70 = DIRECTION ( 'NONE',  ( 1.000000000000000000, 0.0000000000000000000, 0.0000000000000000000 ) ) ;
#71 =( NAMED_UNIT ( * ) SI_UNIT ( $, .STERADIAN. ) SOLID_ANGLE_UNIT ( ) );
#72 = VERTEX_POINT ( 'NONE', #168 ) ;
#73 = COORDINATED_UNIVERSAL_TIME_OFFSET ( 5, 0, .BEHIND. ) ;
#74 = APPROVAL ( #149, 'UNSPECIFIED' ) ;
#75 = DATE_TIME_ROLE ( 'classification_date' ) ;
#76 = AXIS2_PLACEMENT_3D ( 'NONE', #118, #65, #92 ) ;
#77 = DIRECTION ( 'NONE',  ( 0.0000000000000000000, 0.0000000000000000000, 1.000000000000000000 ) ) ;
#78 = FACE_OUTER_BOUND ( 'NONE', #111, .T. ) ;
#79 = CARTESIAN_POINT ( 'NONE',  ( 0.0000000000000000000, 0.0000000000000000000, 2.500000000000000000 ) ) ;
#80 = CIRCLE ( 'NONE', #55, 37.50000000000000711 ) ;
#81 = PRODUCT_DEFINITION_SHAPE ( 'NONE', 'NONE',  #50 ) ;
#82 = PRODUCT_RELATED_PRODUCT_CATEGORY ( 'detail', '', ( #33 ) ) ;
#83 = ORIENTED_EDGE ( 'NONE', *, *, #175, .T. ) ;
#84 = DIRECTION ( 'NONE',  ( 0.0000000000000000000, 0.0000000000000000000, 1.000000000000000000 ) ) ;
#85 = MANIFOLD_SOLID_BREP ( 'Boss-Extrude1', #121 ) ;
#86 = LOCAL_TIME ( 16, 41, 25.00000000000000000, #20 ) ;
#87 = APPLICATION_CONTEXT ( 'configuration controlled 3d designs of mechanical parts and assemblies' ) ;
#88 = SECURITY_CLASSIFICATION_LEVEL ( 'unclassified' ) ;
#89 = CARTESIAN_POINT ( 'NONE',  ( 0.0000000000000000000, 0.0000000000000000000, 2.500000000000000000 ) ) ;
#90 = DIRECTION ( 'NONE',  ( 1.000000000000000000, 0.0000000000000000000, -0.0000000000000000000 ) ) ;
#91 = CALENDAR_DATE ( 2020, 3, 11 ) ;
#92 = DIRECTION ( 'NONE',  ( 1.000000000000000000, 0.0000000000000000000, -0.0000000000000000000 ) ) ;
#93 = CARTESIAN_POINT ( 'NONE',  ( 37.50000000000000711, 4.592425496802575156E-15, -2.500000000000000000 ) ) ;
#94 = AXIS2_PLACEMENT_3D ( 'NONE', #89, #169, #46 ) ;
#95 = AXIS2_PLACEMENT_3D ( 'NONE', #36, #108, #54 ) ;
#96 = EDGE_LOOP ( 'NONE', ( #5, #83 ) ) ;
#97 = APPLICATION_PROTOCOL_DEFINITION ( 'international standard', 'config_control_design', 1994, #87 ) ;
#98 = EDGE_CURVE ( 'NONE', #128, #14, #135, .T. ) ;
#99 = CARTESIAN_POINT ( 'NONE',  ( 0.0000000000000000000, 0.0000000000000000000, 2.500000000000000000 ) ) ;
#100 = PRODUCT_DEFINITION_FORMATION_WITH_SPECIFIED_SOURCE ( 'ANY', '', #33, .NOT_KNOWN. ) ;
#101 = APPROVAL_PERSON_ORGANIZATION ( #40, #74, #113 ) ;
#102 = DATE_TIME_ROLE ( 'creation_date' ) ;
#103 = AXIS2_PLACEMENT_3D ( 'NONE', #63, #29, #90 ) ;
#104 = CYLINDRICAL_SURFACE ( 'NONE', #94, 37.50000000000000711 ) ;
#105 = DIRECTION ( 'NONE',  ( -0.0000000000000000000, -0.0000000000000000000, -1.000000000000000000 ) ) ;
#106 = APPROVAL ( #58, 'UNSPECIFIED' ) ;
#107 = AXIS2_PLACEMENT_3D ( 'NONE', #99, #56, #12 ) ;
#108 = DIRECTION ( 'NONE',  ( 0.0000000000000000000, 0.0000000000000000000, 1.000000000000000000 ) ) ;
#109 =( GEOMETRIC_REPRESENTATION_CONTEXT ( 3 ) GLOBAL_UNCERTAINTY_ASSIGNED_CONTEXT ( ( #4 ) ) GLOBAL_UNIT_ASSIGNED_CONTEXT ( ( #158, #147, #71 ) ) REPRESENTATION_CONTEXT ( 'NONE', 'WORKASPACE' ) );
#110 = APPROVAL_STATUS ( 'not_yet_approved' ) ;
#111 = EDGE_LOOP ( 'NONE', ( #115, #52 ) ) ;
#112 = VECTOR ( 'NONE', #105, 1000.000000000000000 ) ;
#113 = APPROVAL_ROLE ( '' ) ;
#114 = FACE_OUTER_BOUND ( 'NONE', #145, .T. ) ;
#115 = ORIENTED_EDGE ( 'NONE', *, *, #25, .F. ) ;
#116 = CARTESIAN_POINT ( 'NONE',  ( 37.50000000000000711, 4.592425496802575156E-15, 2.500000000000000000 ) ) ;
#117 = DIRECTION ( 'NONE',  ( -0.0000000000000000000, -0.0000000000000000000, -1.000000000000000000 ) ) ;
#118 = CARTESIAN_POINT ( 'NONE',  ( 0.0000000000000000000, 0.0000000000000000000, 2.500000000000000000 ) ) ;
#119 = LOCAL_TIME ( 16, 41, 25.00000000000000000, #172 ) ;
#120 = ORIENTED_EDGE ( 'NONE', *, *, #98, .F. ) ;
#121 = CLOSED_SHELL ( 'NONE', ( #126, #16, #138, #127 ) ) ;
#122 = CC_DESIGN_DATE_AND_TIME_ASSIGNMENT ( #22, #102, ( #50 ) ) ;
#123 = COORDINATED_UNIVERSAL_TIME_OFFSET ( 5, 0, .BEHIND. ) ;
#124 = ORIENTED_EDGE ( 'NONE', *, *, #43, .T. ) ;
#125 = APPROVAL_DATE_TIME ( #150, #106 ) ;
#126 = ADVANCED_FACE ( 'NONE', ( #24 ), #104, .T. ) ;
#127 = ADVANCED_FACE ( 'NONE', ( #78 ), #140, .F. ) ;
#128 = VERTEX_POINT ( 'NONE', #6 ) ;
#129 = DESIGN_CONTEXT ( 'detailed design', #26, 'design' ) ;
#130 = CC_DESIGN_APPROVAL ( #106, ( #100 ) ) ;
#131 = CALENDAR_DATE ( 2020, 3, 11 ) ;
#132 = PERSON_AND_ORGANIZATION ( #171, #1 ) ;
#133 = PERSON_AND_ORGANIZATION ( #171, #1 ) ;
#134 = CC_DESIGN_PERSON_AND_ORGANIZATION_ASSIGNMENT ( #133, #2, ( #100 ) ) ;
#135 = LINE ( 'NONE', #170, #112 ) ;
#136 = ORIENTED_EDGE ( 'NONE', *, *, #175, .F. ) ;
#137 = PERSON_AND_ORGANIZATION ( #171, #1 ) ;
#138 = ADVANCED_FACE ( 'NONE', ( #141 ), #18, .T. ) ;
#139 = CC_DESIGN_APPROVAL ( #64, ( #50 ) ) ;
#140 = PLANE ( 'NONE',  #103 ) ;
#141 = FACE_OUTER_BOUND ( 'NONE', #96, .T. ) ;
#142 = CARTESIAN_POINT ( 'NONE',  ( 0.0000000000000000000, 0.0000000000000000000, -2.500000000000000000 ) ) ;
#143 = ORIENTED_EDGE ( 'NONE', *, *, #25, .T. ) ;
#144 = CC_DESIGN_DATE_AND_TIME_ASSIGNMENT ( #31, #75, ( #153 ) ) ;
#145 = EDGE_LOOP ( 'NONE', ( #61, #39, #35, #143 ) ) ;
#146 = CALENDAR_DATE ( 2020, 3, 11 ) ;
#147 =( NAMED_UNIT ( * ) PLANE_ANGLE_UNIT ( ) SI_UNIT ( $, .RADIAN. ) );
#148 = CC_DESIGN_PERSON_AND_ORGANIZATION_ASSIGNMENT ( #11, #161, ( #153 ) ) ;
#149 = APPROVAL_STATUS ( 'not_yet_approved' ) ;
#150 = DATE_AND_TIME ( #7, #49 ) ;
#151 = APPROVAL_ROLE ( '' ) ;
#152 = CIRCLE ( 'NONE', #162, 37.50000000000000711 ) ;
#153 = SECURITY_CLASSIFICATION ( '', '', #88 ) ;
#154 = ORIENTED_EDGE ( 'NONE', *, *, #67, .T. ) ;
#155 = DIRECTION ( 'NONE',  ( -0.0000000000000000000, -0.0000000000000000000, -1.000000000000000000 ) ) ;
#156 = PERSON_AND_ORGANIZATION ( #171, #1 ) ;
#157 = EDGE_CURVE ( 'NONE', #128, #72, #69, .T. ) ;
#158 =( LENGTH_UNIT ( ) NAMED_UNIT ( * ) SI_UNIT ( .MILLI., .METRE. ) );
#159 = APPROVAL_DATE_TIME ( #13, #64 ) ;
#160 = PERSON_AND_ORGANIZATION_ROLE ( 'design_owner' ) ;
#161 = PERSON_AND_ORGANIZATION_ROLE ( 'classification_officer' ) ;
#162 = AXIS2_PLACEMENT_3D ( 'NONE', #142, #44, #48 ) ;
#163 = DATE_AND_TIME ( #91, #86 ) ;
#164 = PERSON_AND_ORGANIZATION_ROLE ( 'design_supplier' ) ;
#165 = CC_DESIGN_SECURITY_CLASSIFICATION ( #153, ( #100 ) ) ;
#166 = CALENDAR_DATE ( 2020, 3, 11 ) ;
#167 = CYLINDRICAL_SURFACE ( 'NONE', #66, 37.50000000000000711 ) ;
#168 = CARTESIAN_POINT ( 'NONE',  ( 37.50000000000000711, 4.592425496802575156E-15, 2.500000000000000000 ) ) ;
#169 = DIRECTION ( 'NONE',  ( -0.0000000000000000000, -0.0000000000000000000, -1.000000000000000000 ) ) ;
#170 = CARTESIAN_POINT ( 'NONE',  ( -37.50000000000000711, 0.0000000000000000000, 2.500000000000000000 ) ) ;
#171 = PERSON ( 'UNSPECIFIED', 'UNSPECIFIED', 'UNSPECIFIED', ('UNSPECIFIED'), ('UNSPECIFIED'), ('UNSPECIFIED') ) ;
#172 = COORDINATED_UNIVERSAL_TIME_OFFSET ( 5, 0, .BEHIND. ) ;
#173 = PERSON_AND_ORGANIZATION ( #171, #1 ) ;
#174 = APPROVAL_PERSON_ORGANIZATION ( #132, #106, #151 ) ;
#175 = EDGE_CURVE ( 'NONE', #72, #128, #34, .T. ) ;
ENDSEC;
END-ISO-10303-21;
