ISO-10303-21;
HEADER;
FILE_DESCRIPTION (( 'STEP AP203' ),
    '1' );
FILE_NAME ('Web Model 17225_17226.step',
    '2021-04-08T13:58:58',
    ( '' ),
    ( '' ),
    'SwSTEP 2.0',
    'SolidWorks 2018',
    '' );
FILE_SCHEMA (( 'CONFIG_CONTROL_DESIGN' ));
ENDSEC;

DATA;
#1 = VECTOR ( 'NONE', #31, 1000.000000000000000 ) ;
#2 = CARTESIAN_POINT ( 'NONE',  ( 0.000000000000000000, 0.000000000000000000, 0.000000000000000000 ) ) ;
#3 = DIRECTION ( 'NONE',  ( 1.000000000000000000, 0.000000000000000000, 0.000000000000000000 ) ) ;
#4 = DIRECTION ( 'NONE',  ( 0.000000000000000000, 0.000000000000000000, 1.000000000000000000 ) ) ;
#5 = APPROVAL_STATUS ( 'not_yet_approved' ) ;
#6 = APPLICATION_CONTEXT ( 'configuration controlled 3d designs of mechanical parts and assemblies' ) ;
#7 = CARTESIAN_POINT ( 'NONE',  ( 7.500000000000000000, 9.184850993605147944E-16, 1.000000000000000000 ) ) ;
#8 = EDGE_CURVE ( 'NONE', #25, #105, #122, .T. ) ;
#9 = FACE_OUTER_BOUND ( 'NONE', #88, .T. ) ;
#10 = ADVANCED_BREP_SHAPE_REPRESENTATION ( 'Web Model 17225_17226', ( #38, #172 ), #145 ) ;
#11 = LOCAL_TIME ( 9, 58, 58.00000000000000000, #155 ) ;
#12 = FACE_OUTER_BOUND ( 'NONE', #170, .T. ) ;
#13 = CALENDAR_DATE ( 2021, 8, 4 ) ;
#14 = COORDINATED_UNIVERSAL_TIME_OFFSET ( 5, 0, .BEHIND. ) ;
#15 = DIRECTION ( 'NONE',  ( 0.000000000000000000, 0.000000000000000000, 1.000000000000000000 ) ) ;
#16 = ORIENTED_EDGE ( 'NONE', *, *, #114, .T. ) ;
#17 = PLANE ( 'NONE',  #154 ) ;
#18 = CARTESIAN_POINT ( 'NONE',  ( 0.000000000000000000, 0.000000000000000000, 1.000000000000000000 ) ) ;
#19 = APPROVAL_STATUS ( 'not_yet_approved' ) ;
#20 = SECURITY_CLASSIFICATION_LEVEL ( 'unclassified' ) ;
#21 = ORIENTED_EDGE ( 'NONE', *, *, #103, .T. ) ;
#22 = CALENDAR_DATE ( 2021, 8, 4 ) ;
#23 = EDGE_CURVE ( 'NONE', #62, #75, #47, .T. ) ;
#24 = APPROVAL ( #19, 'UNSPECIFIED' ) ;
#25 = VERTEX_POINT ( 'NONE', #57 ) ;
#26 = FACE_OUTER_BOUND ( 'NONE', #95, .T. ) ;
#27 = DIRECTION ( 'NONE',  ( 0.000000000000000000, 0.000000000000000000, 1.000000000000000000 ) ) ;
#28 = CARTESIAN_POINT ( 'NONE',  ( 0.000000000000000000, 0.000000000000000000, 0.000000000000000000 ) ) ;
#29 = CARTESIAN_POINT ( 'NONE',  ( 0.000000000000000000, 0.000000000000000000, 1.000000000000000000 ) ) ;
#30 = PRODUCT_DEFINITION_FORMATION_WITH_SPECIFIED_SOURCE ( 'ANY', '', #94, .NOT_KNOWN. ) ;
#31 = DIRECTION ( 'NONE',  ( -0.000000000000000000, -0.000000000000000000, -1.000000000000000000 ) ) ;
#32 = ORIENTED_EDGE ( 'NONE', *, *, #8, .F. ) ;
#33 = LOCAL_TIME ( 9, 58, 58.00000000000000000, #39 ) ;
#34 = PERSON_AND_ORGANIZATION ( #175, #63 ) ;
#35 = EDGE_CURVE ( 'NONE', #75, #105, #104, .T. ) ;
#36 = COORDINATED_UNIVERSAL_TIME_OFFSET ( 5, 0, .BEHIND. ) ;
#37 = CC_DESIGN_APPROVAL ( #24, ( #30 ) ) ;
#38 = MANIFOLD_SOLID_BREP ( 'Boss-Extrude1', #61 ) ;
#39 = COORDINATED_UNIVERSAL_TIME_OFFSET ( 5, 0, .BEHIND. ) ;
#40 = CC_DESIGN_PERSON_AND_ORGANIZATION_ASSIGNMENT ( #137, #42, ( #94 ) ) ;
#41 = ORIENTED_EDGE ( 'NONE', *, *, #156, .T. ) ;
#42 = PERSON_AND_ORGANIZATION_ROLE ( 'design_owner' ) ;
#43 = ORIENTED_EDGE ( 'NONE', *, *, #114, .F. ) ;
#44 = CARTESIAN_POINT ( 'NONE',  ( 0.000000000000000000, 0.000000000000000000, 1.000000000000000000 ) ) ;
#45 = DIRECTION ( 'NONE',  ( 1.000000000000000000, 0.000000000000000000, -0.000000000000000000 ) ) ;
#46 = APPROVAL_ROLE ( '' ) ;
#47 = CIRCLE ( 'NONE', #70, 7.500000000000000000 ) ;
#48 = PERSON_AND_ORGANIZATION ( #175, #63 ) ;
#49 = AXIS2_PLACEMENT_3D ( 'NONE', #28, #4, #59 ) ;
#50 = ADVANCED_FACE ( 'NONE', ( #26 ), #128, .T. ) ;
#51 = PRODUCT_DEFINITION ( 'UNKNOWN', '', #30, #54 ) ;
#52 = FACE_OUTER_BOUND ( 'NONE', #130, .T. ) ;
#53 = COORDINATED_UNIVERSAL_TIME_OFFSET ( 5, 0, .BEHIND. ) ;
#54 = DESIGN_CONTEXT ( 'detailed design', #98, 'design' ) ;
#55 = ORIENTED_EDGE ( 'NONE', *, *, #35, .F. ) ;
#56 = LOCAL_TIME ( 9, 58, 58.00000000000000000, #14 ) ;
#57 = CARTESIAN_POINT ( 'NONE',  ( 7.500000000000000000, 9.184850993605147944E-16, 0.000000000000000000 ) ) ;
#58 = DIRECTION ( 'NONE',  ( 1.000000000000000000, 0.000000000000000000, -0.000000000000000000 ) ) ;
#59 = DIRECTION ( 'NONE',  ( 1.000000000000000000, 0.000000000000000000, 0.000000000000000000 ) ) ;
#60 =( NAMED_UNIT ( * ) SI_UNIT ( $, .STERADIAN. ) SOLID_ANGLE_UNIT ( ) );
#61 = CLOSED_SHELL ( 'NONE', ( #89, #50, #157, #102 ) ) ;
#62 = VERTEX_POINT ( 'NONE', #67 ) ;
#63 = ORGANIZATION ( 'UNSPECIFIED', 'UNSPECIFIED', '' ) ;
#64 = DIRECTION ( 'NONE',  ( 0.000000000000000000, 0.000000000000000000, 1.000000000000000000 ) ) ;
#65 = DIRECTION ( 'NONE',  ( 1.000000000000000000, 0.000000000000000000, 0.000000000000000000 ) ) ;
#66 = DIRECTION ( 'NONE',  ( 1.000000000000000000, 0.000000000000000000, 0.000000000000000000 ) ) ;
#67 = CARTESIAN_POINT ( 'NONE',  ( 7.500000000000000000, 9.184850993605147944E-16, 1.000000000000000000 ) ) ;
#68 = ORIENTED_EDGE ( 'NONE', *, *, #8, .T. ) ;
#69 = LOCAL_TIME ( 9, 58, 58.00000000000000000, #53 ) ;
#70 = AXIS2_PLACEMENT_3D ( 'NONE', #18, #134, #65 ) ;
#71 = PERSON_AND_ORGANIZATION ( #175, #63 ) ;
#72 = AXIS2_PLACEMENT_3D ( 'NONE', #29, #127, #125 ) ;
#73 = APPROVAL_PERSON_ORGANIZATION ( #149, #84, #46 ) ;
#74 = PRODUCT_DEFINITION_SHAPE ( 'NONE', 'NONE',  #51 ) ;
#75 = VERTEX_POINT ( 'NONE', #138 ) ;
#76 = PRODUCT_RELATED_PRODUCT_CATEGORY ( 'detail', '', ( #94 ) ) ;
#77 = AXIS2_PLACEMENT_3D ( 'NONE', #44, #15, #66 ) ;
#78 = CALENDAR_DATE ( 2021, 8, 4 ) ;
#79 = PERSON_AND_ORGANIZATION_ROLE ( 'classification_officer' ) ;
#80 = CARTESIAN_POINT ( 'NONE',  ( 0.000000000000000000, 0.000000000000000000, 0.000000000000000000 ) ) ;
#81 = CARTESIAN_POINT ( 'NONE',  ( -7.500000000000000000, 0.000000000000000000, 1.000000000000000000 ) ) ;
#82 = DIRECTION ( 'NONE',  ( 0.000000000000000000, 0.000000000000000000, 1.000000000000000000 ) ) ;
#83 = CARTESIAN_POINT ( 'NONE',  ( 0.000000000000000000, 0.000000000000000000, 1.000000000000000000 ) ) ;
#84 = APPROVAL ( #126, 'UNSPECIFIED' ) ;
#85 = DATE_AND_TIME ( #13, #33 ) ;
#86 = APPROVAL ( #5, 'UNSPECIFIED' ) ;
#87 = ORIENTED_EDGE ( 'NONE', *, *, #23, .F. ) ;
#88 = EDGE_LOOP ( 'NONE', ( #87, #41, #68, #55 ) ) ;
#89 = ADVANCED_FACE ( 'NONE', ( #9 ), #147, .T. ) ;
#90 = ORIENTED_EDGE ( 'NONE', *, *, #23, .T. ) ;
#91 = CC_DESIGN_PERSON_AND_ORGANIZATION_ASSIGNMENT ( #132, #79, ( #146 ) ) ;
#92 = APPROVAL_DATE_TIME ( #129, #86 ) ;
#93 = CC_DESIGN_DATE_AND_TIME_ASSIGNMENT ( #121, #152, ( #51 ) ) ;
#94 = PRODUCT ( 'Web Model 17225_17226', 'Web Model 17225_17226', '', ( #133 ) ) ;
#95 = EDGE_LOOP ( 'NONE', ( #160, #158, #173, #16 ) ) ;
#96 = APPROVAL_ROLE ( '' ) ;
#97 = DIRECTION ( 'NONE',  ( 1.000000000000000000, 0.000000000000000000, 0.000000000000000000 ) ) ;
#98 = APPLICATION_CONTEXT ( 'configuration controlled 3d designs of mechanical parts and assemblies' ) ;
#99 = LINE ( 'NONE', #7, #1 ) ;
#100 = CALENDAR_DATE ( 2021, 8, 4 ) ;
#101 = CC_DESIGN_PERSON_AND_ORGANIZATION_ASSIGNMENT ( #71, #151, ( #30 ) ) ;
#102 = ADVANCED_FACE ( 'NONE', ( #52 ), #17, .F. ) ;
#103 = EDGE_CURVE ( 'NONE', #75, #62, #142, .T. ) ;
#104 = LINE ( 'NONE', #81, #113 ) ;
#105 = VERTEX_POINT ( 'NONE', #164 ) ;
#106 = PERSON_AND_ORGANIZATION ( #175, #63 ) ;
#107 = PERSON_AND_ORGANIZATION_ROLE ( 'creator' ) ;
#108 = CC_DESIGN_APPROVAL ( #84, ( #146 ) ) ;
#109 = DIRECTION ( 'NONE',  ( -0.000000000000000000, -0.000000000000000000, -1.000000000000000000 ) ) ;
#110 = DATE_AND_TIME ( #78, #11 ) ;
#111 = APPROVAL_ROLE ( '' ) ;
#112 = DATE_TIME_ROLE ( 'classification_date' ) ;
#113 = VECTOR ( 'NONE', #109, 1000.000000000000000 ) ;
#114 = EDGE_CURVE ( 'NONE', #105, #25, #131, .T. ) ;
#115 = DATE_AND_TIME ( #100, #174 ) ;
#116 = APPROVAL_PERSON_ORGANIZATION ( #48, #24, #111 ) ;
#117 = PERSON_AND_ORGANIZATION ( #175, #63 ) ;
#118 = AXIS2_PLACEMENT_3D ( 'NONE', #80, #168, #3 ) ;
#119 = UNCERTAINTY_MEASURE_WITH_UNIT (LENGTH_MEASURE( 1.000000000000000082E-05 ), #139, 'distance_accuracy_value', 'NONE');
#120 = CC_DESIGN_DATE_AND_TIME_ASSIGNMENT ( #85, #112, ( #146 ) ) ;
#121 = DATE_AND_TIME ( #159, #56 ) ;
#122 = CIRCLE ( 'NONE', #49, 7.500000000000000000 ) ;
#123 = APPLICATION_PROTOCOL_DEFINITION ( 'international standard', 'config_control_design', 1994, #6 ) ;
#124 = CARTESIAN_POINT ( 'NONE',  ( 0.000000000000000000, 0.000000000000000000, 1.000000000000000000 ) ) ;
#125 = DIRECTION ( 'NONE',  ( -1.000000000000000000, 0.000000000000000000, 0.000000000000000000 ) ) ;
#126 = APPROVAL_STATUS ( 'not_yet_approved' ) ;
#127 = DIRECTION ( 'NONE',  ( -0.000000000000000000, -0.000000000000000000, -1.000000000000000000 ) ) ;
#128 = CYLINDRICAL_SURFACE ( 'NONE', #135, 7.500000000000000000 ) ;
#129 = DATE_AND_TIME ( #22, #69 ) ;
#130 = EDGE_LOOP ( 'NONE', ( #43, #32 ) ) ;
#131 = CIRCLE ( 'NONE', #118, 7.500000000000000000 ) ;
#132 = PERSON_AND_ORGANIZATION ( #175, #63 ) ;
#133 = MECHANICAL_CONTEXT ( 'NONE', #6, 'mechanical' ) ;
#134 = DIRECTION ( 'NONE',  ( 0.000000000000000000, 0.000000000000000000, 1.000000000000000000 ) ) ;
#135 = AXIS2_PLACEMENT_3D ( 'NONE', #124, #165, #163 ) ;
#136 =( NAMED_UNIT ( * ) PLANE_ANGLE_UNIT ( ) SI_UNIT ( $, .RADIAN. ) );
#137 = PERSON_AND_ORGANIZATION ( #175, #63 ) ;
#138 = CARTESIAN_POINT ( 'NONE',  ( -7.500000000000000000, 0.000000000000000000, 1.000000000000000000 ) ) ;
#139 =( LENGTH_UNIT ( ) NAMED_UNIT ( * ) SI_UNIT ( .MILLI., .METRE. ) );
#140 = CC_DESIGN_PERSON_AND_ORGANIZATION_ASSIGNMENT ( #106, #161, ( #51 ) ) ;
#141 = APPROVAL_PERSON_ORGANIZATION ( #34, #86, #96 ) ;
#142 = CIRCLE ( 'NONE', #77, 7.500000000000000000 ) ;
#143 = APPROVAL_DATE_TIME ( #110, #24 ) ;
#144 = CC_DESIGN_APPROVAL ( #86, ( #51 ) ) ;
#145 =( GEOMETRIC_REPRESENTATION_CONTEXT ( 3 ) GLOBAL_UNCERTAINTY_ASSIGNED_CONTEXT ( ( #119 ) ) GLOBAL_UNIT_ASSIGNED_CONTEXT ( ( #139, #136, #60 ) ) REPRESENTATION_CONTEXT ( 'NONE', 'WORKASPACE' ) );
#146 = SECURITY_CLASSIFICATION ( '', '', #20 ) ;
#147 = CYLINDRICAL_SURFACE ( 'NONE', #72, 7.500000000000000000 ) ;
#148 = APPROVAL_DATE_TIME ( #115, #84 ) ;
#149 = PERSON_AND_ORGANIZATION ( #175, #63 ) ;
#150 = APPLICATION_PROTOCOL_DEFINITION ( 'international standard', 'config_control_design', 1994, #98 ) ;
#151 = PERSON_AND_ORGANIZATION_ROLE ( 'design_supplier' ) ;
#152 = DATE_TIME_ROLE ( 'creation_date' ) ;
#153 = CARTESIAN_POINT ( 'NONE',  ( 0.000000000000000000, 0.000000000000000000, 0.000000000000000000 ) ) ;
#154 = AXIS2_PLACEMENT_3D ( 'NONE', #2, #27, #45 ) ;
#155 = COORDINATED_UNIVERSAL_TIME_OFFSET ( 5, 0, .BEHIND. ) ;
#156 = EDGE_CURVE ( 'NONE', #62, #25, #99, .T. ) ;
#157 = ADVANCED_FACE ( 'NONE', ( #12 ), #167, .T. ) ;
#158 = ORIENTED_EDGE ( 'NONE', *, *, #103, .F. ) ;
#159 = CALENDAR_DATE ( 2021, 8, 4 ) ;
#160 = ORIENTED_EDGE ( 'NONE', *, *, #156, .F. ) ;
#161 = PERSON_AND_ORGANIZATION_ROLE ( 'creator' ) ;
#162 = SHAPE_DEFINITION_REPRESENTATION ( #74, #10 ) ;
#163 = DIRECTION ( 'NONE',  ( -1.000000000000000000, 0.000000000000000000, 0.000000000000000000 ) ) ;
#164 = CARTESIAN_POINT ( 'NONE',  ( -7.500000000000000000, 0.000000000000000000, 0.000000000000000000 ) ) ;
#165 = DIRECTION ( 'NONE',  ( -0.000000000000000000, -0.000000000000000000, -1.000000000000000000 ) ) ;
#166 = AXIS2_PLACEMENT_3D ( 'NONE', #83, #82, #58 ) ;
#167 = PLANE ( 'NONE',  #166 ) ;
#168 = DIRECTION ( 'NONE',  ( 0.000000000000000000, 0.000000000000000000, 1.000000000000000000 ) ) ;
#169 = CC_DESIGN_PERSON_AND_ORGANIZATION_ASSIGNMENT ( #117, #107, ( #30 ) ) ;
#170 = EDGE_LOOP ( 'NONE', ( #21, #90 ) ) ;
#171 = CC_DESIGN_SECURITY_CLASSIFICATION ( #146, ( #30 ) ) ;
#172 = AXIS2_PLACEMENT_3D ( 'NONE', #153, #64, #97 ) ;
#173 = ORIENTED_EDGE ( 'NONE', *, *, #35, .T. ) ;
#174 = LOCAL_TIME ( 9, 58, 58.00000000000000000, #36 ) ;
#175 = PERSON ( 'UNSPECIFIED', 'UNSPECIFIED', 'UNSPECIFIED', ('UNSPECIFIED'), ('UNSPECIFIED'), ('UNSPECIFIED') ) ;
ENDSEC;
END-ISO-10303-21;
