ISO-10303-21;
HEADER;
FILE_DESCRIPTION (( 'STEP AP214' ),
    '1' );
FILE_NAME ('3247-E0W.STEP',
    '2009-12-21T16:55:36',
    ( ' ' ),
    ( ' ' ),
    'SwSTEP 2.0',
    'SolidWorks 2009',
    '' );
FILE_SCHEMA (( 'AUTOMOTIVE_DESIGN' ));
ENDSEC;

DATA;
#1 = PRODUCT_DEFINITION_CONTEXT ( 'detailed design', #3, 'design' ) ;
#2 = APPLICATION_PROTOCOL_DEFINITION ( 'draft international standard', 'automotive_design', 1998, #3 ) ;
#3 = APPLICATION_CONTEXT ( 'automotive_design' ) ;
#4 =( NAMED_UNIT ( * ) SI_UNIT ( $, .STERADIAN. ) SOLID_ANGLE_UNIT ( ) );
#5 = ADVANCED_FACE ( 'NONE', ( #48 ), #32, .T. ) ;
#6 = ORIENTED_EDGE ( 'NONE', *, *, #114, .F. ) ;
#7 = CLOSED_SHELL ( 'NONE', ( #81, #5, #88, #10, #91 ) ) ;
#8 = EDGE_LOOP ( 'NONE', ( #89, #122, #94, #12 ) ) ;
#9 = ORIENTED_EDGE ( 'NONE', *, *, #118, .T. ) ;
#10 = ADVANCED_FACE ( 'NONE', ( #31 ), #76, .T. ) ;
#11 = EDGE_LOOP ( 'NONE', ( #117, #95, #50, #104, #90 ) ) ;
#12 = ORIENTED_EDGE ( 'NONE', *, *, #119, .T. ) ;
#13 = UNCERTAINTY_MEASURE_WITH_UNIT (LENGTH_MEASURE( 1.000000000000000100E-005 ), #16, 'distance_accuracy_value', 'NONE');
#14 =( NAMED_UNIT ( * ) SI_UNIT ( $, .STERADIAN. ) SOLID_ANGLE_UNIT ( ) );
#15 =( NAMED_UNIT ( * ) PLANE_ANGLE_UNIT ( ) SI_UNIT ( $, .RADIAN. ) );
#16 =( LENGTH_UNIT ( ) NAMED_UNIT ( * ) SI_UNIT ( .MILLI., .METRE. ) );
#17 = MECHANICAL_DESIGN_GEOMETRIC_PRESENTATION_REPRESENTATION (  '', ( #19 ), #77 ) ;
#18 = PRESENTATION_LAYER_ASSIGNMENT (  '', '', ( #19 ) ) ;
#19 = STYLED_ITEM ( 'NONE', ( #20 ), #10 ) ;
#20 = PRESENTATION_STYLE_ASSIGNMENT (( #21 ) ) ;
#21 = SURFACE_STYLE_USAGE ( .BOTH. , #22 ) ;
#22 = SURFACE_SIDE_STYLE ('',( #23 ) ) ;
#23 = SURFACE_STYLE_FILL_AREA ( #24 ) ;
#24 = FILL_AREA_STYLE ('',( #25 ) ) ;
#25 = FILL_AREA_STYLE_COLOUR ( '', #30 ) ;
#26 = DIRECTION ( 'NONE',  ( 0.0000000000000000000, 1.000000000000000000, 0.0000000000000000000 ) ) ;
#27 = DIRECTION ( 'NONE',  ( -1.000000000000000000, 0.0000000000000000000, 0.0000000000000000000 ) ) ;
#28 = CARTESIAN_POINT ( 'NONE',  ( 0.0000000000000000000, 0.0000000000000000000, -14.40500000000000100 ) ) ;
#29 = AXIS2_PLACEMENT_3D ( 'NONE', #28, #27, #26 ) ;
#30 = COLOUR_RGB ( '',0.9568627450980391500, 0.9490196078431372100, 0.9607843137254902200 ) ;
#31 = FACE_OUTER_BOUND ( 'NONE', #11, .T. ) ;
#32 = SPHERICAL_SURFACE ( 'NONE', #29, 18.02000000000000000 ) ;
#33 =( GEOMETRIC_REPRESENTATION_CONTEXT ( 3 ) GLOBAL_UNCERTAINTY_ASSIGNED_CONTEXT ( ( #34 ) ) GLOBAL_UNIT_ASSIGNED_CONTEXT ( ( #37, #36, #35 ) ) REPRESENTATION_CONTEXT ( 'NONE', 'WORKASPACE' ) );
#34 = UNCERTAINTY_MEASURE_WITH_UNIT (LENGTH_MEASURE( 1.000000000000000100E-005 ), #37, 'distance_accuracy_value', 'NONE');
#35 =( NAMED_UNIT ( * ) SI_UNIT ( $, .STERADIAN. ) SOLID_ANGLE_UNIT ( ) );
#36 =( NAMED_UNIT ( * ) PLANE_ANGLE_UNIT ( ) SI_UNIT ( $, .RADIAN. ) );
#37 =( LENGTH_UNIT ( ) NAMED_UNIT ( * ) SI_UNIT ( .MILLI., .METRE. ) );
#38 = MECHANICAL_DESIGN_GEOMETRIC_PRESENTATION_REPRESENTATION (  '', ( #40 ), #33 ) ;
#39 = PRESENTATION_LAYER_ASSIGNMENT (  '', '', ( #40 ) ) ;
#40 = STYLED_ITEM ( 'NONE', ( #41 ), #5 ) ;
#41 = PRESENTATION_STYLE_ASSIGNMENT (( #42 ) ) ;
#42 = SURFACE_STYLE_USAGE ( .BOTH. , #43 ) ;
#43 = SURFACE_SIDE_STYLE ('',( #44 ) ) ;
#44 = SURFACE_STYLE_FILL_AREA ( #45 ) ;
#45 = FILL_AREA_STYLE ('',( #46 ) ) ;
#46 = FILL_AREA_STYLE_COLOUR ( '', #47 ) ;
#47 = COLOUR_RGB ( '',0.9568627450980391500, 0.9490196078431372100, 0.9607843137254902200 ) ;
#48 = FACE_OUTER_BOUND ( 'NONE', #87, .T. ) ;
#49 = PRODUCT_RELATED_PRODUCT_CATEGORY ( 'part', '', ( #181 ) ) ;
#50 = ORIENTED_EDGE ( 'NONE', *, *, #125, .T. ) ;
#51 = SURFACE_STYLE_FILL_AREA ( #52 ) ;
#52 = FILL_AREA_STYLE ('',( #53 ) ) ;
#53 = FILL_AREA_STYLE_COLOUR ( '', #54 ) ;
#54 = COLOUR_RGB ( '',0.9568627450980391500, 0.9490196078431372100, 0.9607843137254902200 ) ;
#55 = FACE_OUTER_BOUND ( 'NONE', #82, .T. ) ;
#56 =( GEOMETRIC_REPRESENTATION_CONTEXT ( 3 ) GLOBAL_UNCERTAINTY_ASSIGNED_CONTEXT ( ( #57 ) ) GLOBAL_UNIT_ASSIGNED_CONTEXT ( ( #60, #59, #58 ) ) REPRESENTATION_CONTEXT ( 'NONE', 'WORKASPACE' ) );
#57 = UNCERTAINTY_MEASURE_WITH_UNIT (LENGTH_MEASURE( 1.000000000000000100E-005 ), #60, 'distance_accuracy_value', 'NONE');
#58 =( NAMED_UNIT ( * ) SI_UNIT ( $, .STERADIAN. ) SOLID_ANGLE_UNIT ( ) );
#59 =( NAMED_UNIT ( * ) PLANE_ANGLE_UNIT ( ) SI_UNIT ( $, .RADIAN. ) );
#60 =( LENGTH_UNIT ( ) NAMED_UNIT ( * ) SI_UNIT ( .MILLI., .METRE. ) );
#61 = MECHANICAL_DESIGN_GEOMETRIC_PRESENTATION_REPRESENTATION (  '', ( #63 ), #56 ) ;
#62 = PRESENTATION_LAYER_ASSIGNMENT (  '', '', ( #63 ) ) ;
#63 = STYLED_ITEM ( 'NONE', ( #64 ), #80 ) ;
#64 = PRESENTATION_STYLE_ASSIGNMENT (( #65 ) ) ;
#65 = SURFACE_STYLE_USAGE ( .BOTH. , #66 ) ;
#66 = SURFACE_SIDE_STYLE ('',( #67 ) ) ;
#67 = SURFACE_STYLE_FILL_AREA ( #68 ) ;
#68 = FILL_AREA_STYLE ('',( #69 ) ) ;
#69 = FILL_AREA_STYLE_COLOUR ( '', #70 ) ;
#70 = COLOUR_RGB ( '',0.7960784313725489700, 0.8235294117647058400, 0.9372549019607843100 ) ;
#71 = DIRECTION ( 'NONE',  ( 1.000000000000000000, 0.0000000000000000000, 0.0000000000000000000 ) ) ;
#72 = DIRECTION ( 'NONE',  ( -0.0000000000000000000, -0.0000000000000000000, 1.000000000000000000 ) ) ;
#73 = CARTESIAN_POINT ( 'NONE',  ( 0.0000000000000000000, 0.0000000000000000000, 4.308132045400366600 ) ) ;
#74 = AXIS2_PLACEMENT_3D ( 'NONE', #73, #72, #71 ) ;
#75 = CARTESIAN_POINT ( 'NONE',  ( 0.0000000000000000000, 12.69999999999999900, -1.621010012519564300 ) ) ;
#76 = CYLINDRICAL_SURFACE ( 'NONE', #74, 12.69999999999999900 ) ;
#77 =( GEOMETRIC_REPRESENTATION_CONTEXT ( 3 ) GLOBAL_UNCERTAINTY_ASSIGNED_CONTEXT ( ( #13 ) ) GLOBAL_UNIT_ASSIGNED_CONTEXT ( ( #16, #15, #14 ) ) REPRESENTATION_CONTEXT ( 'NONE', 'WORKASPACE' ) );
#78 = VERTEX_POINT ( 'NONE', #75 ) ;
#79 = ORIENTED_EDGE ( 'NONE', *, *, #85, .F. ) ;
#80 = MANIFOLD_SOLID_BREP ( 'NONE', #7 ) ;
#81 = ADVANCED_FACE ( 'NONE', ( #55 ), #223, .T. ) ;
#82 = EDGE_LOOP ( 'NONE', ( #83, #109, #112, #79, #124 ) ) ;
#83 = ORIENTED_EDGE ( 'NONE', *, *, #107, .T. ) ;
#84 = VERTEX_POINT ( 'NONE', #185 ) ;
#85 = EDGE_CURVE ( 'NONE', #86, #78, #242, .T. ) ;
#86 = VERTEX_POINT ( 'NONE', #141 ) ;
#87 = EDGE_LOOP ( 'NONE', ( #115, #9, #116, #93 ) ) ;
#88 = ADVANCED_FACE ( 'NONE', ( #140 ), #174, .T. ) ;
#89 = ORIENTED_EDGE ( 'NONE', *, *, #106, .F. ) ;
#90 = ORIENTED_EDGE ( 'NONE', *, *, #118, .F. ) ;
#91 = ADVANCED_FACE ( 'NONE', ( #222 ), #248, .F. ) ;
#92 = ORIENTED_EDGE ( 'NONE', *, *, #107, .F. ) ;
#93 = ORIENTED_EDGE ( 'NONE', *, *, #119, .F. ) ;
#94 = ORIENTED_EDGE ( 'NONE', *, *, #85, .T. ) ;
#95 = ORIENTED_EDGE ( 'NONE', *, *, #114, .T. ) ;
#96 =( NAMED_UNIT ( * ) PLANE_ANGLE_UNIT ( ) SI_UNIT ( $, .RADIAN. ) );
#97 =( LENGTH_UNIT ( ) NAMED_UNIT ( * ) SI_UNIT ( .MILLI., .METRE. ) );
#98 = MECHANICAL_DESIGN_GEOMETRIC_PRESENTATION_REPRESENTATION (  '', ( #100 ), #155 ) ;
#99 = PRESENTATION_LAYER_ASSIGNMENT (  '', '', ( #100 ) ) ;
#100 = STYLED_ITEM ( 'NONE', ( #101 ), #81 ) ;
#101 = PRESENTATION_STYLE_ASSIGNMENT (( #102 ) ) ;
#102 = SURFACE_STYLE_USAGE ( .BOTH. , #103 ) ;
#103 = SURFACE_SIDE_STYLE ('',( #51 ) ) ;
#104 = ORIENTED_EDGE ( 'NONE', *, *, #123, .F. ) ;
#105 = EDGE_LOOP ( 'NONE', ( #92, #6 ) ) ;
#106 = EDGE_CURVE ( 'NONE', #121, #120, #238, .T. ) ;
#107 = EDGE_CURVE ( 'NONE', #84, #108, #237, .T. ) ;
#108 = VERTEX_POINT ( 'NONE', #147 ) ;
#109 = ORIENTED_EDGE ( 'NONE', *, *, #110, .T. ) ;
#110 = EDGE_CURVE ( 'NONE', #108, #111, #200, .T. ) ;
#111 = VERTEX_POINT ( 'NONE', #196 ) ;
#112 = ORIENTED_EDGE ( 'NONE', *, *, #113, .F. ) ;
#113 = EDGE_CURVE ( 'NONE', #78, #111, #247, .T. ) ;
#114 = EDGE_CURVE ( 'NONE', #108, #84, #146, .T. ) ;
#115 = ORIENTED_EDGE ( 'NONE', *, *, #113, .T. ) ;
#116 = ORIENTED_EDGE ( 'NONE', *, *, #106, .T. ) ;
#117 = ORIENTED_EDGE ( 'NONE', *, *, #110, .F. ) ;
#118 = EDGE_CURVE ( 'NONE', #111, #121, #138, .T. ) ;
#119 = EDGE_CURVE ( 'NONE', #78, #120, #153, .T. ) ;
#120 = VERTEX_POINT ( 'NONE', #132 ) ;
#121 = VERTEX_POINT ( 'NONE', #131 ) ;
#122 = ORIENTED_EDGE ( 'NONE', *, *, #123, .T. ) ;
#123 = EDGE_CURVE ( 'NONE', #121, #86, #210, .T. ) ;
#124 = ORIENTED_EDGE ( 'NONE', *, *, #125, .F. ) ;
#125 = EDGE_CURVE ( 'NONE', #84, #86, #205, .T. ) ;
#126 = PRODUCT_DEFINITION_FORMATION_WITH_SPECIFIED_SOURCE ( 'ANY', '', #181, .NOT_KNOWN. ) ;
#127 = PRODUCT_DEFINITION ( 'UNKNOWN', '', #126, #1 ) ;
#128 = UNCERTAINTY_MEASURE_WITH_UNIT (LENGTH_MEASURE( 1.000000000000000100E-005 ), #225, 'distance_accuracy_value', 'NONE');
#129 =( NAMED_UNIT ( * ) SI_UNIT ( $, .STERADIAN. ) SOLID_ANGLE_UNIT ( ) );
#130 =( NAMED_UNIT ( * ) PLANE_ANGLE_UNIT ( ) SI_UNIT ( $, .RADIAN. ) );
#131 = CARTESIAN_POINT ( 'NONE',  ( -1.555250069354418900E-015, -12.69999999999999900, -1.621010012519564300 ) ) ;
#132 = CARTESIAN_POINT ( 'NONE',  ( 0.0000000000000000000, 1.103370324793961900E-015, 3.615000000000000200 ) ) ;
#133 = DIRECTION ( 'NONE',  ( 0.0000000000000000000, 0.0000000000000000000, -1.000000000000000000 ) ) ;
#134 = DIRECTION ( 'NONE',  ( 1.000000000000000000, 0.0000000000000000000, 0.0000000000000000000 ) ) ;
#135 = DIRECTION ( 'NONE',  ( -0.0000000000000000000, -0.0000000000000000000, 1.000000000000000000 ) ) ;
#136 = CARTESIAN_POINT ( 'NONE',  ( 0.0000000000000000000, 0.0000000000000000000, -1.621010012519564300 ) ) ;
#137 = AXIS2_PLACEMENT_3D ( 'NONE', #136, #135, #154 ) ;
#138 = CIRCLE ( 'NONE', #137, 12.69999999999999900 ) ;
#139 = COLOUR_RGB ( '',0.9568627450980391500, 0.9490196078431372100, 0.9607843137254902200 ) ;
#140 = FACE_OUTER_BOUND ( 'NONE', #8, .T. ) ;
#141 = CARTESIAN_POINT ( 'NONE',  ( 12.69999999999999900, 0.0000000000000000000, -1.621010012519564300 ) ) ;
#142 = DIRECTION ( 'NONE',  ( 1.000000000000000000, 0.0000000000000000000, 0.0000000000000000000 ) ) ;
#143 = DIRECTION ( 'NONE',  ( -0.0000000000000000000, -0.0000000000000000000, 1.000000000000000000 ) ) ;
#144 = CARTESIAN_POINT ( 'NONE',  ( 0.0000000000000000000, 0.0000000000000000000, -3.615000000000000200 ) ) ;
#145 = AXIS2_PLACEMENT_3D ( 'NONE', #144, #143, #142 ) ;
#146 = CIRCLE ( 'NONE', #145, 12.69999999999999900 ) ;
#147 = CARTESIAN_POINT ( 'NONE',  ( -12.69999999999999900, 1.555250069354419100E-015, -3.615000000000000200 ) ) ;
#148 = DIRECTION ( 'NONE',  ( 1.000000000000000000, 0.0000000000000000000, 0.0000000000000000000 ) ) ;
#149 = DIRECTION ( 'NONE',  ( -0.0000000000000000000, -0.0000000000000000000, 1.000000000000000000 ) ) ;
#150 =( NAMED_UNIT ( * ) PLANE_ANGLE_UNIT ( ) SI_UNIT ( $, .RADIAN. ) );
#151 = CARTESIAN_POINT ( 'NONE',  ( 0.0000000000000000000, 0.0000000000000000000, -14.40500000000000100 ) ) ;
#152 = AXIS2_PLACEMENT_3D ( 'NONE', #151, #134, #133 ) ;
#153 = CIRCLE ( 'NONE', #152, 18.02000000000000000 ) ;
#154 = DIRECTION ( 'NONE',  ( 1.000000000000000000, 0.0000000000000000000, 0.0000000000000000000 ) ) ;
#155 =( GEOMETRIC_REPRESENTATION_CONTEXT ( 3 ) GLOBAL_UNCERTAINTY_ASSIGNED_CONTEXT ( ( #235 ) ) GLOBAL_UNIT_ASSIGNED_CONTEXT ( ( #97, #96, #4 ) ) REPRESENTATION_CONTEXT ( 'NONE', 'WORKASPACE' ) );
#156 = CARTESIAN_POINT ( 'NONE',  ( 0.0000000000000000000, 0.0000000000000000000, -14.40500000000000100 ) ) ;
#157 = AXIS2_PLACEMENT_3D ( 'NONE', #156, #220, #219 ) ;
#158 =( GEOMETRIC_REPRESENTATION_CONTEXT ( 3 ) GLOBAL_UNCERTAINTY_ASSIGNED_CONTEXT ( ( #195 ) ) GLOBAL_UNIT_ASSIGNED_CONTEXT ( ( #184, #204, #232 ) ) REPRESENTATION_CONTEXT ( 'NONE', 'WORKASPACE' ) );
#159 =( NAMED_UNIT ( * ) SI_UNIT ( $, .STERADIAN. ) SOLID_ANGLE_UNIT ( ) );
#160 = STYLED_ITEM ( 'NONE', ( #161 ), #201 ) ;
#161 = PRESENTATION_STYLE_ASSIGNMENT (( #162 ) ) ;
#162 = SURFACE_STYLE_USAGE ( .BOTH. , #163 ) ;
#163 = SURFACE_SIDE_STYLE ('',( #164 ) ) ;
#164 = SURFACE_STYLE_FILL_AREA ( #165 ) ;
#165 = FILL_AREA_STYLE ('',( #166 ) ) ;
#166 = FILL_AREA_STYLE_COLOUR ( '', #167 ) ;
#167 = COLOUR_RGB ( '',0.7960784313725489700, 0.8235294117647058400, 0.9372549019607843100 ) ;
#168 = APPLICATION_CONTEXT ( 'automotive_design' ) ;
#169 = AXIS2_PLACEMENT_3D ( 'NONE', #234, #233, #190 ) ;
#170 = DIRECTION ( 'NONE',  ( 1.000000000000000000, 0.0000000000000000000, 0.0000000000000000000 ) ) ;
#171 = DIRECTION ( 'NONE',  ( -0.0000000000000000000, -0.0000000000000000000, 1.000000000000000000 ) ) ;
#172 = CARTESIAN_POINT ( 'NONE',  ( 0.0000000000000000000, 0.0000000000000000000, -1.621010012519564300 ) ) ;
#173 = AXIS2_PLACEMENT_3D ( 'NONE', #172, #171, #170 ) ;
#174 = SPHERICAL_SURFACE ( 'NONE', #157, 18.02000000000000000 ) ;
#175 = DIRECTION ( 'NONE',  ( -1.224606353822377300E-016, -1.000000000000000000, 0.0000000000000000000 ) ) ;
#176 = DIRECTION ( 'NONE',  ( -1.000000000000000000, 1.224606353822377300E-016, 0.0000000000000000000 ) ) ;
#177 = CARTESIAN_POINT ( 'NONE',  ( 0.0000000000000000000, 0.0000000000000000000, -14.40500000000000100 ) ) ;
#178 = AXIS2_PLACEMENT_3D ( 'NONE', #177, #176, #175 ) ;
#179 = CARTESIAN_POINT ( 'NONE',  ( 0.0000000000000000000, 0.0000000000000000000, -3.615000000000000200 ) ) ;
#180 = MECHANICAL_DESIGN_GEOMETRIC_PRESENTATION_REPRESENTATION (  '', ( #257 ), #158 ) ;
#181 = PRODUCT ( '3247-E0W', '3247-E0W', '', ( #182 ) ) ;
#182 = PRODUCT_CONTEXT ( 'NONE', #168, 'mechanical' ) ;
#183 = APPLICATION_PROTOCOL_DEFINITION ( 'draft international standard', 'automotive_design', 1998, #168 ) ;
#184 =( LENGTH_UNIT ( ) NAMED_UNIT ( * ) SI_UNIT ( .MILLI., .METRE. ) );
#185 = CARTESIAN_POINT ( 'NONE',  ( 12.69999999999999900, 0.0000000000000000000, -3.615000000000000200 ) ) ;
#186 =( NAMED_UNIT ( * ) PLANE_ANGLE_UNIT ( ) SI_UNIT ( $, .RADIAN. ) );
#187 =( LENGTH_UNIT ( ) NAMED_UNIT ( * ) SI_UNIT ( .MILLI., .METRE. ) );
#188 = MECHANICAL_DESIGN_GEOMETRIC_PRESENTATION_REPRESENTATION (  '', ( #160 ), #253 ) ;
#189 = PRESENTATION_LAYER_ASSIGNMENT (  '', '', ( #160 ) ) ;
#190 = DIRECTION ( 'NONE',  ( 1.000000000000000000, 0.0000000000000000000, 0.0000000000000000000 ) ) ;
#191 = SURFACE_SIDE_STYLE ('',( #192 ) ) ;
#192 = SURFACE_STYLE_FILL_AREA ( #193 ) ;
#193 = FILL_AREA_STYLE ('',( #194 ) ) ;
#194 = FILL_AREA_STYLE_COLOUR ( '', #139 ) ;
#195 = UNCERTAINTY_MEASURE_WITH_UNIT (LENGTH_MEASURE( 1.000000000000000100E-005 ), #184, 'distance_accuracy_value', 'NONE');
#196 = CARTESIAN_POINT ( 'NONE',  ( -12.69999999999999900, 1.555250069354419100E-015, -1.621010012519564300 ) ) ;
#197 = DIRECTION ( 'NONE',  ( -0.0000000000000000000, -0.0000000000000000000, 1.000000000000000000 ) ) ;
#198 = VECTOR ( 'NONE', #197, 1000.000000000000000 ) ;
#199 = CARTESIAN_POINT ( 'NONE',  ( -12.69999999999999900, 1.555250069354419100E-015, 4.308132045400366600 ) ) ;
#200 = LINE ( 'NONE', #199, #198 ) ;
#201 = ADVANCED_BREP_SHAPE_REPRESENTATION ( '3247-E0W', ( #80, #226 ), #202 ) ;
#202 =( GEOMETRIC_REPRESENTATION_CONTEXT ( 3 ) GLOBAL_UNCERTAINTY_ASSIGNED_CONTEXT ( ( #128 ) ) GLOBAL_UNIT_ASSIGNED_CONTEXT ( ( #225, #130, #129 ) ) REPRESENTATION_CONTEXT ( 'NONE', 'WORKASPACE' ) );
#203 =( GEOMETRIC_REPRESENTATION_CONTEXT ( 3 ) GLOBAL_UNCERTAINTY_ASSIGNED_CONTEXT ( ( #224 ) ) GLOBAL_UNIT_ASSIGNED_CONTEXT ( ( #229, #150, #159 ) ) REPRESENTATION_CONTEXT ( 'NONE', 'WORKASPACE' ) );
#204 =( NAMED_UNIT ( * ) PLANE_ANGLE_UNIT ( ) SI_UNIT ( $, .RADIAN. ) );
#205 = LINE ( 'NONE', #211, #228 ) ;
#206 = DIRECTION ( 'NONE',  ( 1.000000000000000000, 0.0000000000000000000, 0.0000000000000000000 ) ) ;
#207 = DIRECTION ( 'NONE',  ( -0.0000000000000000000, -0.0000000000000000000, 1.000000000000000000 ) ) ;
#208 = CARTESIAN_POINT ( 'NONE',  ( 0.0000000000000000000, 0.0000000000000000000, -1.621010012519564300 ) ) ;
#209 = AXIS2_PLACEMENT_3D ( 'NONE', #208, #207, #206 ) ;
#210 = CIRCLE ( 'NONE', #209, 12.69999999999999900 ) ;
#211 = CARTESIAN_POINT ( 'NONE',  ( 12.69999999999999900, 0.0000000000000000000, 4.308132045400366600 ) ) ;
#212 = STYLED_ITEM ( 'NONE', ( #213 ), #91 ) ;
#213 = PRESENTATION_STYLE_ASSIGNMENT (( #214 ) ) ;
#214 = SURFACE_STYLE_USAGE ( .BOTH. , #215 ) ;
#215 = SURFACE_SIDE_STYLE ('',( #216 ) ) ;
#216 = SURFACE_STYLE_FILL_AREA ( #217 ) ;
#217 = FILL_AREA_STYLE ('',( #218 ) ) ;
#218 = FILL_AREA_STYLE_COLOUR ( '', #221 ) ;
#219 = DIRECTION ( 'NONE',  ( 0.0000000000000000000, 1.000000000000000000, 0.0000000000000000000 ) ) ;
#220 = DIRECTION ( 'NONE',  ( -1.000000000000000000, 0.0000000000000000000, 0.0000000000000000000 ) ) ;
#221 = COLOUR_RGB ( '',0.9568627450980391500, 0.9490196078431372100, 0.9607843137254902200 ) ;
#222 = FACE_OUTER_BOUND ( 'NONE', #105, .T. ) ;
#223 = CYLINDRICAL_SURFACE ( 'NONE', #169, 12.69999999999999900 ) ;
#224 = UNCERTAINTY_MEASURE_WITH_UNIT (LENGTH_MEASURE( 1.000000000000000100E-005 ), #229, 'distance_accuracy_value', 'NONE');
#225 =( LENGTH_UNIT ( ) NAMED_UNIT ( * ) SI_UNIT ( .MILLI., .METRE. ) );
#226 = AXIS2_PLACEMENT_3D ( 'NONE', #252, #251, #250 ) ;
#227 = DIRECTION ( 'NONE',  ( -0.0000000000000000000, -0.0000000000000000000, 1.000000000000000000 ) ) ;
#228 = VECTOR ( 'NONE', #227, 1000.000000000000000 ) ;
#229 =( LENGTH_UNIT ( ) NAMED_UNIT ( * ) SI_UNIT ( .MILLI., .METRE. ) );
#230 = MECHANICAL_DESIGN_GEOMETRIC_PRESENTATION_REPRESENTATION (  '', ( #212 ), #203 ) ;
#231 = PRESENTATION_LAYER_ASSIGNMENT (  '', '', ( #212 ) ) ;
#232 =( NAMED_UNIT ( * ) SI_UNIT ( $, .STERADIAN. ) SOLID_ANGLE_UNIT ( ) );
#233 = DIRECTION ( 'NONE',  ( -0.0000000000000000000, -0.0000000000000000000, 1.000000000000000000 ) ) ;
#234 = CARTESIAN_POINT ( 'NONE',  ( 0.0000000000000000000, 0.0000000000000000000, 4.308132045400366600 ) ) ;
#235 = UNCERTAINTY_MEASURE_WITH_UNIT (LENGTH_MEASURE( 1.000000000000000100E-005 ), #97, 'distance_accuracy_value', 'NONE');
#236 = AXIS2_PLACEMENT_3D ( 'NONE', #179, #149, #148 ) ;
#237 = CIRCLE ( 'NONE', #236, 12.69999999999999900 ) ;
#238 = CIRCLE ( 'NONE', #178, 18.02000000000000000 ) ;
#239 = DIRECTION ( 'NONE',  ( 1.000000000000000000, 0.0000000000000000000, 0.0000000000000000000 ) ) ;
#240 = DIRECTION ( 'NONE',  ( 0.0000000000000000000, -0.0000000000000000000, 1.000000000000000000 ) ) ;
#241 = CARTESIAN_POINT ( 'NONE',  ( 0.0000000000000000000, 1.328129453675304600E-015, -3.615000000000000200 ) ) ;
#242 = CIRCLE ( 'NONE', #173, 12.69999999999999900 ) ;
#243 = DIRECTION ( 'NONE',  ( 1.000000000000000000, 0.0000000000000000000, 0.0000000000000000000 ) ) ;
#244 = DIRECTION ( 'NONE',  ( -0.0000000000000000000, -0.0000000000000000000, 1.000000000000000000 ) ) ;
#245 = CARTESIAN_POINT ( 'NONE',  ( 0.0000000000000000000, 0.0000000000000000000, -1.621010012519564300 ) ) ;
#246 = AXIS2_PLACEMENT_3D ( 'NONE', #245, #244, #243 ) ;
#247 = CIRCLE ( 'NONE', #246, 12.69999999999999900 ) ;
#248 = PLANE ( 'NONE',  #249 ) ;
#249 = AXIS2_PLACEMENT_3D ( 'NONE', #241, #240, #239 ) ;
#250 = DIRECTION ( 'NONE',  ( 1.000000000000000000, 0.0000000000000000000, 0.0000000000000000000 ) ) ;
#251 = DIRECTION ( 'NONE',  ( 0.0000000000000000000, 0.0000000000000000000, 1.000000000000000000 ) ) ;
#252 = CARTESIAN_POINT ( 'NONE',  ( 0.0000000000000000000, 0.0000000000000000000, 0.0000000000000000000 ) ) ;
#253 =( GEOMETRIC_REPRESENTATION_CONTEXT ( 3 ) GLOBAL_UNCERTAINTY_ASSIGNED_CONTEXT ( ( #254 ) ) GLOBAL_UNIT_ASSIGNED_CONTEXT ( ( #187, #186, #255 ) ) REPRESENTATION_CONTEXT ( 'NONE', 'WORKASPACE' ) );
#254 = UNCERTAINTY_MEASURE_WITH_UNIT (LENGTH_MEASURE( 1.000000000000000100E-005 ), #187, 'distance_accuracy_value', 'NONE');
#255 =( NAMED_UNIT ( * ) SI_UNIT ( $, .STERADIAN. ) SOLID_ANGLE_UNIT ( ) );
#256 = PRESENTATION_LAYER_ASSIGNMENT (  '', '', ( #257 ) ) ;
#257 = STYLED_ITEM ( 'NONE', ( #258 ), #88 ) ;
#258 = PRESENTATION_STYLE_ASSIGNMENT (( #259 ) ) ;
#259 = SURFACE_STYLE_USAGE ( .BOTH. , #191 ) ;
#260 = SHAPE_DEFINITION_REPRESENTATION ( #261, #201 ) ;
#261 = PRODUCT_DEFINITION_SHAPE ( 'NONE', 'NONE',  #127 ) ;
ENDSEC;
END-ISO-10303-21;
