ISO-10303-21;
HEADER;
FILE_DESCRIPTION (( 'STEP AP203' ),
    '1' );
FILE_NAME ('47193_47193.step',
    '2018-01-22T13:11:23',
    ( '' ),
    ( '' ),
    'SwSTEP 2.0',
    'SolidWorks 2016',
    '' );
FILE_SCHEMA (( 'CONFIG_CONTROL_DESIGN' ));
ENDSEC;

DATA;
#1 = LINE ( 'NONE', #7, #85 ) ;
#2 = AXIS2_PLACEMENT_3D ( 'NONE', #124, #34, #138 ) ;
#3 = MECHANICAL_CONTEXT ( 'NONE', #67, 'mechanical' ) ;
#4 = PERSON_AND_ORGANIZATION_ROLE ( 'classification_officer' ) ;
#5 = PERSON_AND_ORGANIZATION ( #156, #104 ) ;
#6 = PERSON_AND_ORGANIZATION ( #156, #104 ) ;
#7 = CARTESIAN_POINT ( 'NONE',  ( -6.249999999999998200, 7.654042494670955600E-016, -1.500000000000000000 ) ) ;
#8 = ORIENTED_EDGE ( 'NONE', *, *, #64, .T. ) ;
#9 = CALENDAR_DATE ( 2018, 22, 1 ) ;
#10 = CC_DESIGN_PERSON_AND_ORGANIZATION_ASSIGNMENT ( #14, #68, ( #154 ) ) ;
#11 = DIRECTION ( 'NONE',  ( 1.000000000000000000, 0.0000000000000000000, 0.0000000000000000000 ) ) ;
#12 = VERTEX_POINT ( 'NONE', #171 ) ;
#13 = AXIS2_PLACEMENT_3D ( 'NONE', #129, #96, #128 ) ;
#14 = PERSON_AND_ORGANIZATION ( #156, #104 ) ;
#15 = PERSON_AND_ORGANIZATION ( #156, #104 ) ;
#16 = DIRECTION ( 'NONE',  ( 0.0000000000000000000, 0.0000000000000000000, 1.000000000000000000 ) ) ;
#17 = COORDINATED_UNIVERSAL_TIME_OFFSET ( 5, 0, .BEHIND. ) ;
#18 = APPLICATION_CONTEXT ( 'configuration controlled 3d designs of mechanical parts and assemblies' ) ;
#19 = APPROVAL_STATUS ( 'not_yet_approved' ) ;
#20 = LINE ( 'NONE', #92, #118 ) ;
#21 = CC_DESIGN_PERSON_AND_ORGANIZATION_ASSIGNMENT ( #6, #166, ( #154 ) ) ;
#22 = ORIENTED_EDGE ( 'NONE', *, *, #75, .F. ) ;
#23 = ADVANCED_FACE ( 'NONE', ( #168 ), #144, .T. ) ;
#24 = DIRECTION ( 'NONE',  ( 0.0000000000000000000, 0.0000000000000000000, 1.000000000000000000 ) ) ;
#25 = ORIENTED_EDGE ( 'NONE', *, *, #100, .T. ) ;
#26 = LOCAL_TIME ( 8, 11, 23.00000000000000000, #126 ) ;
#27 = PERSON_AND_ORGANIZATION ( #156, #104 ) ;
#28 = CIRCLE ( 'NONE', #45, 6.249999999999998200 ) ;
#29 = SECURITY_CLASSIFICATION ( '', '', #80 ) ;
#30 = DATE_AND_TIME ( #88, #91 ) ;
#31 = CIRCLE ( 'NONE', #32, 6.249999999999998200 ) ;
#32 = AXIS2_PLACEMENT_3D ( 'NONE', #35, #140, #172 ) ;
#33 = APPROVAL_STATUS ( 'not_yet_approved' ) ;
#34 = DIRECTION ( 'NONE',  ( 0.0000000000000000000, 0.0000000000000000000, 1.000000000000000000 ) ) ;
#35 = CARTESIAN_POINT ( 'NONE',  ( 0.0000000000000000000, 0.0000000000000000000, -1.500000000000000000 ) ) ;
#36 = CC_DESIGN_PERSON_AND_ORGANIZATION_ASSIGNMENT ( #5, #4, ( #29 ) ) ;
#37 = PLANE ( 'NONE',  #39 ) ;
#38 = ORIENTED_EDGE ( 'NONE', *, *, #112, .F. ) ;
#39 = AXIS2_PLACEMENT_3D ( 'NONE', #106, #54, #135 ) ;
#40 =( NAMED_UNIT ( * ) SI_UNIT ( $, .STERADIAN. ) SOLID_ANGLE_UNIT ( ) );
#41 = PERSON_AND_ORGANIZATION_ROLE ( 'creator' ) ;
#42 = CC_DESIGN_DATE_AND_TIME_ASSIGNMENT ( #60, #95, ( #29 ) ) ;
#43 = PLANE ( 'NONE',  #13 ) ;
#44 = DIRECTION ( 'NONE',  ( 1.000000000000000000, 0.0000000000000000000, 0.0000000000000000000 ) ) ;
#45 = AXIS2_PLACEMENT_3D ( 'NONE', #65, #117, #11 ) ;
#46 = CALENDAR_DATE ( 2018, 22, 1 ) ;
#47 = CYLINDRICAL_SURFACE ( 'NONE', #73, 6.249999999999998200 ) ;
#48 = APPROVAL_DATE_TIME ( #114, #167 ) ;
#49 = VERTEX_POINT ( 'NONE', #98 ) ;
#50 = FACE_OUTER_BOUND ( 'NONE', #53, .T. ) ;
#51 =( LENGTH_UNIT ( ) NAMED_UNIT ( * ) SI_UNIT ( .MILLI., .METRE. ) );
#52 = APPROVAL ( #19, 'UNSPECIFIED' ) ;
#53 = EDGE_LOOP ( 'NONE', ( #82, #8 ) ) ;
#54 = DIRECTION ( 'NONE',  ( 0.0000000000000000000, 0.0000000000000000000, 1.000000000000000000 ) ) ;
#55 = APPLICATION_PROTOCOL_DEFINITION ( 'international standard', 'config_control_design', 1994, #67 ) ;
#56 = APPROVAL_STATUS ( 'not_yet_approved' ) ;
#57 = EDGE_LOOP ( 'NONE', ( #115, #161 ) ) ;
#58 = PERSON_AND_ORGANIZATION ( #156, #104 ) ;
#59 = DIRECTION ( 'NONE',  ( 1.000000000000000000, 0.0000000000000000000, 0.0000000000000000000 ) ) ;
#60 = DATE_AND_TIME ( #46, #26 ) ;
#61 = CARTESIAN_POINT ( 'NONE',  ( 6.249999999999998200, 0.0000000000000000000, 0.0000000000000000000 ) ) ;
#62 = CC_DESIGN_APPROVAL ( #52, ( #29 ) ) ;
#63 =( GEOMETRIC_REPRESENTATION_CONTEXT ( 3 ) GLOBAL_UNCERTAINTY_ASSIGNED_CONTEXT ( ( #174 ) ) GLOBAL_UNIT_ASSIGNED_CONTEXT ( ( #51, #120, #40 ) ) REPRESENTATION_CONTEXT ( 'NONE', 'WORKASPACE' ) );
#64 = EDGE_CURVE ( 'NONE', #49, #94, #125, .T. ) ;
#65 = CARTESIAN_POINT ( 'NONE',  ( 0.0000000000000000000, 0.0000000000000000000, 0.0000000000000000000 ) ) ;
#66 = CARTESIAN_POINT ( 'NONE',  ( 0.0000000000000000000, 0.0000000000000000000, 0.0000000000000000000 ) ) ;
#67 = APPLICATION_CONTEXT ( 'configuration controlled 3d designs of mechanical parts and assemblies' ) ;
#68 = PERSON_AND_ORGANIZATION_ROLE ( 'creator' ) ;
#69 = CC_DESIGN_SECURITY_CLASSIFICATION ( #29, ( #154 ) ) ;
#70 = LOCAL_TIME ( 8, 11, 23.00000000000000000, #84 ) ;
#71 = CARTESIAN_POINT ( 'NONE',  ( 0.0000000000000000000, 0.0000000000000000000, 0.0000000000000000000 ) ) ;
#72 = DIRECTION ( 'NONE',  ( 0.0000000000000000000, 0.0000000000000000000, 1.000000000000000000 ) ) ;
#73 = AXIS2_PLACEMENT_3D ( 'NONE', #74, #162, #152 ) ;
#74 = CARTESIAN_POINT ( 'NONE',  ( 0.0000000000000000000, 0.0000000000000000000, -1.500000000000000000 ) ) ;
#75 = EDGE_CURVE ( 'NONE', #12, #49, #1, .T. ) ;
#76 = PRODUCT_RELATED_PRODUCT_CATEGORY ( 'detail', '', ( #173 ) ) ;
#77 = APPROVAL_PERSON_ORGANIZATION ( #15, #167, #149 ) ;
#78 = ORIENTED_EDGE ( 'NONE', *, *, #64, .F. ) ;
#79 = DIRECTION ( 'NONE',  ( 1.000000000000000000, 0.0000000000000000000, 0.0000000000000000000 ) ) ;
#80 = SECURITY_CLASSIFICATION_LEVEL ( 'unclassified' ) ;
#81 = PERSON_AND_ORGANIZATION ( #156, #104 ) ;
#82 = ORIENTED_EDGE ( 'NONE', *, *, #112, .T. ) ;
#83 = ADVANCED_FACE ( 'NONE', ( #102 ), #43, .F. ) ;
#84 = COORDINATED_UNIVERSAL_TIME_OFFSET ( 5, 0, .BEHIND. ) ;
#85 = VECTOR ( 'NONE', #24, 1000.000000000000000 ) ;
#86 = CLOSED_SHELL ( 'NONE', ( #23, #141, #83, #97 ) ) ;
#87 = ORIENTED_EDGE ( 'NONE', *, *, #75, .T. ) ;
#88 = CALENDAR_DATE ( 2018, 22, 1 ) ;
#89 = PERSON_AND_ORGANIZATION ( #156, #104 ) ;
#90 = EDGE_CURVE ( 'NONE', #12, #160, #148, .T. ) ;
#91 = LOCAL_TIME ( 8, 11, 23.00000000000000000, #17 ) ;
#92 = CARTESIAN_POINT ( 'NONE',  ( 6.249999999999998200, 0.0000000000000000000, -1.500000000000000000 ) ) ;
#93 = PERSON_AND_ORGANIZATION_ROLE ( 'design_owner' ) ;
#94 = VERTEX_POINT ( 'NONE', #61 ) ;
#95 = DATE_TIME_ROLE ( 'classification_date' ) ;
#96 = DIRECTION ( 'NONE',  ( 0.0000000000000000000, 0.0000000000000000000, 1.000000000000000000 ) ) ;
#97 = ADVANCED_FACE ( 'NONE', ( #50 ), #37, .T. ) ;
#98 = CARTESIAN_POINT ( 'NONE',  ( -6.249999999999998200, 7.654042494670955600E-016, 0.0000000000000000000 ) ) ;
#99 = AXIS2_PLACEMENT_3D ( 'NONE', #66, #164, #79 ) ;
#100 = EDGE_CURVE ( 'NONE', #160, #12, #31, .T. ) ;
#101 = MANIFOLD_SOLID_BREP ( 'Boss-Extrude1', #86 ) ;
#102 = FACE_OUTER_BOUND ( 'NONE', #57, .T. ) ;
#103 = APPROVAL_DATE_TIME ( #145, #131 ) ;
#104 = ORGANIZATION ( 'UNSPECIFIED', 'UNSPECIFIED', '' ) ;
#105 = APPLICATION_PROTOCOL_DEFINITION ( 'international standard', 'config_control_design', 1994, #18 ) ;
#106 = CARTESIAN_POINT ( 'NONE',  ( 0.0000000000000000000, 0.0000000000000000000, 0.0000000000000000000 ) ) ;
#107 = CC_DESIGN_PERSON_AND_ORGANIZATION_ASSIGNMENT ( #27, #93, ( #173 ) ) ;
#108 = DATE_AND_TIME ( #9, #121 ) ;
#109 = APPROVAL_ROLE ( '' ) ;
#110 = DESIGN_CONTEXT ( 'detailed design', #18, 'design' ) ;
#111 = ORIENTED_EDGE ( 'NONE', *, *, #142, .T. ) ;
#112 = EDGE_CURVE ( 'NONE', #94, #49, #28, .T. ) ;
#113 = CARTESIAN_POINT ( 'NONE',  ( 0.0000000000000000000, 0.0000000000000000000, -1.500000000000000000 ) ) ;
#114 = DATE_AND_TIME ( #134, #70 ) ;
#115 = ORIENTED_EDGE ( 'NONE', *, *, #100, .F. ) ;
#116 = PRODUCT_DEFINITION ( 'UNKNOWN', '', #154, #110 ) ;
#117 = DIRECTION ( 'NONE',  ( 0.0000000000000000000, 0.0000000000000000000, 1.000000000000000000 ) ) ;
#118 = VECTOR ( 'NONE', #16, 1000.000000000000000 ) ;
#119 = CC_DESIGN_PERSON_AND_ORGANIZATION_ASSIGNMENT ( #81, #41, ( #116 ) ) ;
#120 =( NAMED_UNIT ( * ) PLANE_ANGLE_UNIT ( ) SI_UNIT ( $, .RADIAN. ) );
#121 = LOCAL_TIME ( 8, 11, 23.00000000000000000, #150 ) ;
#122 = ADVANCED_BREP_SHAPE_REPRESENTATION ( '47193_47193', ( #101, #99 ), #63 ) ;
#123 = APPROVAL_ROLE ( '' ) ;
#124 = CARTESIAN_POINT ( 'NONE',  ( 0.0000000000000000000, 0.0000000000000000000, -1.500000000000000000 ) ) ;
#125 = CIRCLE ( 'NONE', #158, 6.249999999999998200 ) ;
#126 = COORDINATED_UNIVERSAL_TIME_OFFSET ( 5, 0, .BEHIND. ) ;
#127 = ORIENTED_EDGE ( 'NONE', *, *, #90, .T. ) ;
#128 = DIRECTION ( 'NONE',  ( 1.000000000000000000, 0.0000000000000000000, -0.0000000000000000000 ) ) ;
#129 = CARTESIAN_POINT ( 'NONE',  ( 0.0000000000000000000, 0.0000000000000000000, -1.500000000000000000 ) ) ;
#130 = ORIENTED_EDGE ( 'NONE', *, *, #142, .F. ) ;
#131 = APPROVAL ( #33, 'UNSPECIFIED' ) ;
#132 = APPROVAL_PERSON_ORGANIZATION ( #58, #52, #109 ) ;
#133 = EDGE_LOOP ( 'NONE', ( #22, #127, #111, #78 ) ) ;
#134 = CALENDAR_DATE ( 2018, 22, 1 ) ;
#135 = DIRECTION ( 'NONE',  ( 1.000000000000000000, 0.0000000000000000000, -0.0000000000000000000 ) ) ;
#136 = LOCAL_TIME ( 8, 11, 23.00000000000000000, #151 ) ;
#137 = DATE_TIME_ROLE ( 'creation_date' ) ;
#138 = DIRECTION ( 'NONE',  ( 1.000000000000000000, 0.0000000000000000000, 0.0000000000000000000 ) ) ;
#139 = CC_DESIGN_APPROVAL ( #131, ( #116 ) ) ;
#140 = DIRECTION ( 'NONE',  ( 0.0000000000000000000, 0.0000000000000000000, 1.000000000000000000 ) ) ;
#141 = ADVANCED_FACE ( 'NONE', ( #155 ), #47, .T. ) ;
#142 = EDGE_CURVE ( 'NONE', #160, #94, #20, .T. ) ;
#143 = SHAPE_DEFINITION_REPRESENTATION ( #147, #122 ) ;
#144 = CYLINDRICAL_SURFACE ( 'NONE', #170, 6.249999999999998200 ) ;
#145 = DATE_AND_TIME ( #159, #136 ) ;
#146 = CC_DESIGN_DATE_AND_TIME_ASSIGNMENT ( #108, #137, ( #116 ) ) ;
#147 = PRODUCT_DEFINITION_SHAPE ( 'NONE', 'NONE',  #116 ) ;
#148 = CIRCLE ( 'NONE', #2, 6.249999999999998200 ) ;
#149 = APPROVAL_ROLE ( '' ) ;
#150 = COORDINATED_UNIVERSAL_TIME_OFFSET ( 5, 0, .BEHIND. ) ;
#151 = COORDINATED_UNIVERSAL_TIME_OFFSET ( 5, 0, .BEHIND. ) ;
#152 = DIRECTION ( 'NONE',  ( 1.000000000000000000, 0.0000000000000000000, 0.0000000000000000000 ) ) ;
#153 = APPROVAL_DATE_TIME ( #30, #52 ) ;
#154 = PRODUCT_DEFINITION_FORMATION_WITH_SPECIFIED_SOURCE ( 'ANY', '', #173, .NOT_KNOWN. ) ;
#155 = FACE_OUTER_BOUND ( 'NONE', #133, .T. ) ;
#156 = PERSON ( 'UNSPECIFIED', 'UNSPECIFIED', 'UNSPECIFIED', ('UNSPECIFIED'), ('UNSPECIFIED'), ('UNSPECIFIED') ) ;
#157 = APPROVAL_PERSON_ORGANIZATION ( #89, #131, #123 ) ;
#158 = AXIS2_PLACEMENT_3D ( 'NONE', #71, #169, #59 ) ;
#159 = CALENDAR_DATE ( 2018, 22, 1 ) ;
#160 = VERTEX_POINT ( 'NONE', #163 ) ;
#161 = ORIENTED_EDGE ( 'NONE', *, *, #90, .F. ) ;
#162 = DIRECTION ( 'NONE',  ( 0.0000000000000000000, 0.0000000000000000000, 1.000000000000000000 ) ) ;
#163 = CARTESIAN_POINT ( 'NONE',  ( 6.249999999999998200, 0.0000000000000000000, -1.500000000000000000 ) ) ;
#164 = DIRECTION ( 'NONE',  ( 0.0000000000000000000, 0.0000000000000000000, 1.000000000000000000 ) ) ;
#165 = EDGE_LOOP ( 'NONE', ( #25, #87, #38, #130 ) ) ;
#166 = PERSON_AND_ORGANIZATION_ROLE ( 'design_supplier' ) ;
#167 = APPROVAL ( #56, 'UNSPECIFIED' ) ;
#168 = FACE_OUTER_BOUND ( 'NONE', #165, .T. ) ;
#169 = DIRECTION ( 'NONE',  ( 0.0000000000000000000, 0.0000000000000000000, 1.000000000000000000 ) ) ;
#170 = AXIS2_PLACEMENT_3D ( 'NONE', #113, #72, #44 ) ;
#171 = CARTESIAN_POINT ( 'NONE',  ( -6.249999999999998200, 7.654042494670955600E-016, -1.500000000000000000 ) ) ;
#172 = DIRECTION ( 'NONE',  ( 1.000000000000000000, 0.0000000000000000000, 0.0000000000000000000 ) ) ;
#173 = PRODUCT ( '47193_47193', '47193_47193', '', ( #3 ) ) ;
#174 = UNCERTAINTY_MEASURE_WITH_UNIT (LENGTH_MEASURE( 1.000000000000000100E-005 ), #51, 'distance_accuracy_value', 'NONE');
#175 = CC_DESIGN_APPROVAL ( #167, ( #154 ) ) ;
ENDSEC;
END-ISO-10303-21;
