ISO-10303-21;
HEADER;
FILE_DESCRIPTION (( 'STEP AP203' ),
    '1' );
FILE_NAME ('Web Model 37689_39010.step',
    '2018-10-18T19:44:23',
    ( '' ),
    ( '' ),
    'SwSTEP 2.0',
    'SolidWorks 2016',
    '' );
FILE_SCHEMA (( 'CONFIG_CONTROL_DESIGN' ));
ENDSEC;

DATA;
#1 = PERSON_AND_ORGANIZATION ( #156, #5 ) ;
#2 = FACE_OUTER_BOUND ( 'NONE', #8, .T. ) ;
#3 = DIRECTION ( 'NONE',  ( 1.000000000000000000, 0.0000000000000000000, 0.0000000000000000000 ) ) ;
#4 = CARTESIAN_POINT ( 'NONE',  ( 12.69999999999999900, 1.555301434917138400E-015, -3.174999999999999800 ) ) ;
#5 = ORGANIZATION ( 'UNSPECIFIED', 'UNSPECIFIED', '' ) ;
#6 = CARTESIAN_POINT ( 'NONE',  ( -12.69999999999999900, 0.0000000000000000000, -3.174999999999999800 ) ) ;
#7 = APPLICATION_PROTOCOL_DEFINITION ( 'international standard', 'config_control_design', 1994, #113 ) ;
#8 = EDGE_LOOP ( 'NONE', ( #102, #134, #157, #161 ) ) ;
#9 = APPLICATION_PROTOCOL_DEFINITION ( 'international standard', 'config_control_design', 1994, #167 ) ;
#10 = AXIS2_PLACEMENT_3D ( 'NONE', #57, #138, #70 ) ;
#11 = PERSON_AND_ORGANIZATION ( #156, #5 ) ;
#12 = LINE ( 'NONE', #111, #107 ) ;
#13 = COORDINATED_UNIVERSAL_TIME_OFFSET ( 5, 0, .BEHIND. ) ;
#14 = DIRECTION ( 'NONE',  ( -1.000000000000000000, 0.0000000000000000000, 0.0000000000000000000 ) ) ;
#15 = VERTEX_POINT ( 'NONE', #6 ) ;
#16 = AXIS2_PLACEMENT_3D ( 'NONE', #127, #41, #3 ) ;
#17 = VERTEX_POINT ( 'NONE', #164 ) ;
#18 = CARTESIAN_POINT ( 'NONE',  ( 0.0000000000000000000, 0.0000000000000000000, 3.174999999999999800 ) ) ;
#19 = DATE_TIME_ROLE ( 'creation_date' ) ;
#20 = DATE_AND_TIME ( #58, #71 ) ;
#21 = APPROVAL_ROLE ( '' ) ;
#22 = CIRCLE ( 'NONE', #48, 12.69999999999999900 ) ;
#23 = EDGE_CURVE ( 'NONE', #124, #15, #69, .T. ) ;
#24 = APPROVAL_DATE_TIME ( #20, #83 ) ;
#25 = LOCAL_TIME ( 15, 44, 23.00000000000000000, #99 ) ;
#26 = LOCAL_TIME ( 15, 44, 23.00000000000000000, #148 ) ;
#27 = CIRCLE ( 'NONE', #139, 12.69999999999999900 ) ;
#28 = ADVANCED_FACE ( 'NONE', ( #2 ), #151, .T. ) ;
#29 = CC_DESIGN_APPROVAL ( #83, ( #122 ) ) ;
#30 = PLANE ( 'NONE',  #78 ) ;
#31 = ORIENTED_EDGE ( 'NONE', *, *, #95, .T. ) ;
#32 = CARTESIAN_POINT ( 'NONE',  ( 0.0000000000000000000, 0.0000000000000000000, 3.174999999999999800 ) ) ;
#33 = DIRECTION ( 'NONE',  ( 0.0000000000000000000, 0.0000000000000000000, 1.000000000000000000 ) ) ;
#34 = CLOSED_SHELL ( 'NONE', ( #28, #87, #155, #74 ) ) ;
#35 = AXIS2_PLACEMENT_3D ( 'NONE', #18, #119, #158 ) ;
#36 = CIRCLE ( 'NONE', #35, 12.69999999999999900 ) ;
#37 = CC_DESIGN_DATE_AND_TIME_ASSIGNMENT ( #123, #89, ( #112 ) ) ;
#38 = ORIENTED_EDGE ( 'NONE', *, *, #23, .T. ) ;
#39 = DIRECTION ( 'NONE',  ( -0.0000000000000000000, -0.0000000000000000000, -1.000000000000000000 ) ) ;
#40 = ORIENTED_EDGE ( 'NONE', *, *, #162, .F. ) ;
#41 = DIRECTION ( 'NONE',  ( 0.0000000000000000000, 0.0000000000000000000, 1.000000000000000000 ) ) ;
#42 = CC_DESIGN_PERSON_AND_ORGANIZATION_ASSIGNMENT ( #146, #63, ( #159 ) ) ;
#43 = CARTESIAN_POINT ( 'NONE',  ( -12.69999999999999900, 0.0000000000000000000, 3.174999999999999800 ) ) ;
#44 = APPROVAL_STATUS ( 'not_yet_approved' ) ;
#45 = ORIENTED_EDGE ( 'NONE', *, *, #91, .F. ) ;
#46 = PERSON_AND_ORGANIZATION_ROLE ( 'design_supplier' ) ;
#47 = PERSON_AND_ORGANIZATION_ROLE ( 'creator' ) ;
#48 = AXIS2_PLACEMENT_3D ( 'NONE', #62, #33, #129 ) ;
#49 =( LENGTH_UNIT ( ) NAMED_UNIT ( * ) SI_UNIT ( .MILLI., .METRE. ) );
#50 = CALENDAR_DATE ( 2018, 18, 10 ) ;
#51 = VECTOR ( 'NONE', #97, 1000.000000000000000 ) ;
#52 = CC_DESIGN_APPROVAL ( #133, ( #112 ) ) ;
#53 = APPROVAL ( #128, 'UNSPECIFIED' ) ;
#54 = DATE_AND_TIME ( #92, #26 ) ;
#55 = FACE_OUTER_BOUND ( 'NONE', #116, .T. ) ;
#56 = PRODUCT_DEFINITION ( 'UNKNOWN', '', #122, #114 ) ;
#57 = CARTESIAN_POINT ( 'NONE',  ( 0.0000000000000000000, 0.0000000000000000000, -3.174999999999999800 ) ) ;
#58 = CALENDAR_DATE ( 2018, 18, 10 ) ;
#59 = CC_DESIGN_SECURITY_CLASSIFICATION ( #112, ( #122 ) ) ;
#60 = SECURITY_CLASSIFICATION_LEVEL ( 'unclassified' ) ;
#61 = PRODUCT_DEFINITION_SHAPE ( 'NONE', 'NONE',  #56 ) ;
#62 = CARTESIAN_POINT ( 'NONE',  ( 0.0000000000000000000, 0.0000000000000000000, -3.174999999999999800 ) ) ;
#63 = PERSON_AND_ORGANIZATION_ROLE ( 'design_owner' ) ;
#64 = VERTEX_POINT ( 'NONE', #4 ) ;
#65 = CARTESIAN_POINT ( 'NONE',  ( 0.0000000000000000000, 0.0000000000000000000, 3.174999999999999800 ) ) ;
#66 = APPROVAL_DATE_TIME ( #115, #133 ) ;
#67 = PRODUCT_RELATED_PRODUCT_CATEGORY ( 'detail', '', ( #159 ) ) ;
#68 = APPROVAL_PERSON_ORGANIZATION ( #153, #133, #21 ) ;
#69 = LINE ( 'NONE', #43, #51 ) ;
#70 = DIRECTION ( 'NONE',  ( 1.000000000000000000, 0.0000000000000000000, -0.0000000000000000000 ) ) ;
#71 = LOCAL_TIME ( 15, 44, 23.00000000000000000, #13 ) ;
#72 = CC_DESIGN_APPROVAL ( #53, ( #56 ) ) ;
#73 = DIRECTION ( 'NONE',  ( 0.0000000000000000000, 0.0000000000000000000, 1.000000000000000000 ) ) ;
#74 = ADVANCED_FACE ( 'NONE', ( #110 ), #166, .F. ) ;
#75 = PERSON_AND_ORGANIZATION_ROLE ( 'classification_officer' ) ;
#76 = APPROVAL_DATE_TIME ( #54, #53 ) ;
#77 = PERSON_AND_ORGANIZATION_ROLE ( 'creator' ) ;
#78 = AXIS2_PLACEMENT_3D ( 'NONE', #65, #73, #132 ) ;
#79 = SHAPE_DEFINITION_REPRESENTATION ( #61, #118 ) ;
#80 = UNCERTAINTY_MEASURE_WITH_UNIT (LENGTH_MEASURE( 1.000000000000000100E-005 ), #49, 'distance_accuracy_value', 'NONE');
#81 = EDGE_CURVE ( 'NONE', #15, #64, #96, .T. ) ;
#82 = ORIENTED_EDGE ( 'NONE', *, *, #81, .T. ) ;
#83 = APPROVAL ( #44, 'UNSPECIFIED' ) ;
#84 = FACE_OUTER_BOUND ( 'NONE', #131, .T. ) ;
#85 = CALENDAR_DATE ( 2018, 18, 10 ) ;
#86 =( NAMED_UNIT ( * ) PLANE_ANGLE_UNIT ( ) SI_UNIT ( $, .RADIAN. ) );
#87 = ADVANCED_FACE ( 'NONE', ( #84 ), #121, .T. ) ;
#88 = AXIS2_PLACEMENT_3D ( 'NONE', #142, #154, #98 ) ;
#89 = DATE_TIME_ROLE ( 'classification_date' ) ;
#90 = APPROVAL_PERSON_ORGANIZATION ( #169, #83, #143 ) ;
#91 = EDGE_CURVE ( 'NONE', #17, #64, #12, .T. ) ;
#92 = CALENDAR_DATE ( 2018, 18, 10 ) ;
#93 = ORIENTED_EDGE ( 'NONE', *, *, #81, .F. ) ;
#94 = LOCAL_TIME ( 15, 44, 23.00000000000000000, #135 ) ;
#95 = EDGE_CURVE ( 'NONE', #17, #124, #36, .T. ) ;
#96 = CIRCLE ( 'NONE', #16, 12.69999999999999900 ) ;
#97 = DIRECTION ( 'NONE',  ( -0.0000000000000000000, -0.0000000000000000000, -1.000000000000000000 ) ) ;
#98 = DIRECTION ( 'NONE',  ( -1.000000000000000000, 0.0000000000000000000, 0.0000000000000000000 ) ) ;
#99 = COORDINATED_UNIVERSAL_TIME_OFFSET ( 5, 0, .BEHIND. ) ;
#100 = CC_DESIGN_PERSON_AND_ORGANIZATION_ASSIGNMENT ( #1, #47, ( #56 ) ) ;
#101 = DIRECTION ( 'NONE',  ( 1.000000000000000000, 0.0000000000000000000, 0.0000000000000000000 ) ) ;
#102 = ORIENTED_EDGE ( 'NONE', *, *, #95, .F. ) ;
#103 = CARTESIAN_POINT ( 'NONE',  ( 0.0000000000000000000, 0.0000000000000000000, 0.0000000000000000000 ) ) ;
#104 = CC_DESIGN_PERSON_AND_ORGANIZATION_ASSIGNMENT ( #125, #46, ( #122 ) ) ;
#105 =( GEOMETRIC_REPRESENTATION_CONTEXT ( 3 ) GLOBAL_UNCERTAINTY_ASSIGNED_CONTEXT ( ( #80 ) ) GLOBAL_UNIT_ASSIGNED_CONTEXT ( ( #49, #86, #120 ) ) REPRESENTATION_CONTEXT ( 'NONE', 'WORKASPACE' ) );
#106 = PERSON_AND_ORGANIZATION ( #156, #5 ) ;
#107 = VECTOR ( 'NONE', #39, 1000.000000000000000 ) ;
#108 = CC_DESIGN_DATE_AND_TIME_ASSIGNMENT ( #172, #19, ( #56 ) ) ;
#109 = PERSON_AND_ORGANIZATION ( #156, #5 ) ;
#110 = FACE_OUTER_BOUND ( 'NONE', #160, .T. ) ;
#111 = CARTESIAN_POINT ( 'NONE',  ( 12.69999999999999900, 1.555301434917138400E-015, 3.174999999999999800 ) ) ;
#112 = SECURITY_CLASSIFICATION ( '', '', #60 ) ;
#113 = APPLICATION_CONTEXT ( 'configuration controlled 3d designs of mechanical parts and assemblies' ) ;
#114 = DESIGN_CONTEXT ( 'detailed design', #167, 'design' ) ;
#115 = DATE_AND_TIME ( #50, #25 ) ;
#116 = EDGE_LOOP ( 'NONE', ( #170, #31 ) ) ;
#117 = DIRECTION ( 'NONE',  ( 0.0000000000000000000, 0.0000000000000000000, 1.000000000000000000 ) ) ;
#118 = ADVANCED_BREP_SHAPE_REPRESENTATION ( 'Web Model 37689_39010', ( #149, #152 ), #105 ) ;
#119 = DIRECTION ( 'NONE',  ( 0.0000000000000000000, 0.0000000000000000000, 1.000000000000000000 ) ) ;
#120 =( NAMED_UNIT ( * ) SI_UNIT ( $, .STERADIAN. ) SOLID_ANGLE_UNIT ( ) );
#121 = CYLINDRICAL_SURFACE ( 'NONE', #88, 12.69999999999999900 ) ;
#122 = PRODUCT_DEFINITION_FORMATION_WITH_SPECIFIED_SOURCE ( 'ANY', '', #159, .NOT_KNOWN. ) ;
#123 = DATE_AND_TIME ( #85, #94 ) ;
#124 = VERTEX_POINT ( 'NONE', #140 ) ;
#125 = PERSON_AND_ORGANIZATION ( #156, #5 ) ;
#126 = CARTESIAN_POINT ( 'NONE',  ( 0.0000000000000000000, 0.0000000000000000000, 3.174999999999999800 ) ) ;
#127 = CARTESIAN_POINT ( 'NONE',  ( 0.0000000000000000000, 0.0000000000000000000, -3.174999999999999800 ) ) ;
#128 = APPROVAL_STATUS ( 'not_yet_approved' ) ;
#129 = DIRECTION ( 'NONE',  ( 1.000000000000000000, 0.0000000000000000000, 0.0000000000000000000 ) ) ;
#130 = MECHANICAL_CONTEXT ( 'NONE', #113, 'mechanical' ) ;
#131 = EDGE_LOOP ( 'NONE', ( #45, #40, #38, #82 ) ) ;
#132 = DIRECTION ( 'NONE',  ( 1.000000000000000000, 0.0000000000000000000, -0.0000000000000000000 ) ) ;
#133 = APPROVAL ( #168, 'UNSPECIFIED' ) ;
#134 = ORIENTED_EDGE ( 'NONE', *, *, #91, .T. ) ;
#135 = COORDINATED_UNIVERSAL_TIME_OFFSET ( 5, 0, .BEHIND. ) ;
#136 = CC_DESIGN_PERSON_AND_ORGANIZATION_ASSIGNMENT ( #11, #77, ( #122 ) ) ;
#137 = ORIENTED_EDGE ( 'NONE', *, *, #175, .F. ) ;
#138 = DIRECTION ( 'NONE',  ( 0.0000000000000000000, 0.0000000000000000000, 1.000000000000000000 ) ) ;
#139 = AXIS2_PLACEMENT_3D ( 'NONE', #32, #147, #101 ) ;
#140 = CARTESIAN_POINT ( 'NONE',  ( -12.69999999999999900, 0.0000000000000000000, 3.174999999999999800 ) ) ;
#141 = DIRECTION ( 'NONE',  ( -0.0000000000000000000, -0.0000000000000000000, -1.000000000000000000 ) ) ;
#142 = CARTESIAN_POINT ( 'NONE',  ( 0.0000000000000000000, 0.0000000000000000000, 3.174999999999999800 ) ) ;
#143 = APPROVAL_ROLE ( '' ) ;
#144 = CC_DESIGN_PERSON_AND_ORGANIZATION_ASSIGNMENT ( #109, #75, ( #112 ) ) ;
#145 = APPROVAL_ROLE ( '' ) ;
#146 = PERSON_AND_ORGANIZATION ( #156, #5 ) ;
#147 = DIRECTION ( 'NONE',  ( 0.0000000000000000000, 0.0000000000000000000, 1.000000000000000000 ) ) ;
#148 = COORDINATED_UNIVERSAL_TIME_OFFSET ( 5, 0, .BEHIND. ) ;
#149 = MANIFOLD_SOLID_BREP ( 'Boss-Extrude1', #34 ) ;
#150 = LOCAL_TIME ( 15, 44, 23.00000000000000000, #174 ) ;
#151 = CYLINDRICAL_SURFACE ( 'NONE', #165, 12.69999999999999900 ) ;
#152 = AXIS2_PLACEMENT_3D ( 'NONE', #103, #117, #171 ) ;
#153 = PERSON_AND_ORGANIZATION ( #156, #5 ) ;
#154 = DIRECTION ( 'NONE',  ( -0.0000000000000000000, -0.0000000000000000000, -1.000000000000000000 ) ) ;
#155 = ADVANCED_FACE ( 'NONE', ( #55 ), #30, .T. ) ;
#156 = PERSON ( 'UNSPECIFIED', 'UNSPECIFIED', 'UNSPECIFIED', ('UNSPECIFIED'), ('UNSPECIFIED'), ('UNSPECIFIED') ) ;
#157 = ORIENTED_EDGE ( 'NONE', *, *, #175, .T. ) ;
#158 = DIRECTION ( 'NONE',  ( 1.000000000000000000, 0.0000000000000000000, 0.0000000000000000000 ) ) ;
#159 = PRODUCT ( 'Web Model 37689_39010', 'Web Model 37689_39010', '', ( #130 ) ) ;
#160 = EDGE_LOOP ( 'NONE', ( #93, #137 ) ) ;
#161 = ORIENTED_EDGE ( 'NONE', *, *, #23, .F. ) ;
#162 = EDGE_CURVE ( 'NONE', #124, #17, #27, .T. ) ;
#163 = CALENDAR_DATE ( 2018, 18, 10 ) ;
#164 = CARTESIAN_POINT ( 'NONE',  ( 12.69999999999999900, 1.555301434917138400E-015, 3.174999999999999800 ) ) ;
#165 = AXIS2_PLACEMENT_3D ( 'NONE', #126, #141, #14 ) ;
#166 = PLANE ( 'NONE',  #10 ) ;
#167 = APPLICATION_CONTEXT ( 'configuration controlled 3d designs of mechanical parts and assemblies' ) ;
#168 = APPROVAL_STATUS ( 'not_yet_approved' ) ;
#169 = PERSON_AND_ORGANIZATION ( #156, #5 ) ;
#170 = ORIENTED_EDGE ( 'NONE', *, *, #162, .T. ) ;
#171 = DIRECTION ( 'NONE',  ( 1.000000000000000000, 0.0000000000000000000, 0.0000000000000000000 ) ) ;
#172 = DATE_AND_TIME ( #163, #150 ) ;
#173 = APPROVAL_PERSON_ORGANIZATION ( #106, #53, #145 ) ;
#174 = COORDINATED_UNIVERSAL_TIME_OFFSET ( 5, 0, .BEHIND. ) ;
#175 = EDGE_CURVE ( 'NONE', #64, #15, #22, .T. ) ;
ENDSEC;
END-ISO-10303-21;
